PrimaNota.ru - самый крупный в мире бесплатный архив песенных текстов, аккордов, табулатур и нот


Lmc - Oh My Juliet - текст песни, таба, видео

Регистрация Запомнить меня
Войти через:  Facebook Google Twitter Vk Yandex Mail.ru

Lmc - Oh My Juliet - текст песни, таба, видео

Печатать
Просмотров: 172
Уроки эстрадного вокала в Санкт-Петербурге
Tuning: Drop D (DADGBE).

Intro:
4x
e|---------------------------------------------------------------------------|
B|---------------------------------------------------------------------------|
G|---------------------------------------------------------------------------|
D|----666-99999-222-444-55--666-99999-222-11111------------------------------|
A|----666-99999-222-444-55--666-99999-222-11111------------------------------|
D|----666-99999-222-444-55--666-99999-222-11111------------------------------|


Verse:
(Step by step kimi to deatte...)
4x
e|---------------------------------------------------------------------------|
B|---------------------------------------------------------------------------|
G|---------------------------------------------------------------------------|
D|-----66--999---22--444-----66--999---22--111-------------------------------|
A|-----66--999---22--444-----66--999---22--111-------------------------------|
D|-----66--999---22--444-----66--999---22--111-------------------------------|


Prechorus:
(Oroka na koi da to...)
2x
e|---------------------------------------------------------------------------|
B|---------------------------------------------------------------------------|
G|---------------------------------------------------------------------------|
D|----22222222-11111111-00000000-11111111------------------------------------|
A|----22222222-11111111-00000000-11111111------------------------------------|
D|----22222222-11111111-00000000-11111111------------------------------------|

(Oh my Juliet...)
e|---------------------------------------------------------------------------|
B|---------------------------------------------------------------------------|
G|---------------------------------------------------------------------------|
D|----2-22222---4-44444------------------------------------------------------|
A|----2-22222---4-44444------------------------------------------------------|
D|----2-22222---4-44444------------------------------------------------------|


Chorus:
(Ne kami sama...)
3x
e|---------------------------------------------------------------------------|
B|---------------------------------------------------------------------------|
G|---------------------------------------------------------------------------|
D|----999---66-666----444---66-666-------------------------------------------|
A|----999---66-666----444---66-666-------------------------------------------|
D|----999---66-666----444---66-666-------------------------------------------|

4th time:
e|---------------------------------------------------------------------------|
B|---------------------------------------------------------------------------|
G|---------------------------------------------------------------------------|
D|----999---66-666----444----------------------------------------------------|
A|----999---66-666----444----------------------------------------------------|
D|----999---66-666----444----------------------------------------------------|


Break:
2x
e|---------------------------------------------------------------------------|
B|---------------------------------------------------------------------------|
G|---------------------------------------------------------------------------|
D|----666-99999-222-444-55--666-99999-222-11111------------------------------|
A|----666-99999-222-444-55--666-99999-222-11111------------------------------|
D|----666-99999-222-444-55--666-99999-222-11111------------------------------|


Verse:
(Kuruoshii hodo yoru wa nagakute...)
e|---------------------------------------------------------------------------|
B|---------------------------------------------------------------------------|
G|---------------------------------------------------------------------------|
D|----6----------------------------------------------------------------------|
A|----6-let-ring-------------------------------------------------------------|
D|----6----------------------------------------------------------------------|

(Namae wo suteta boku wa bail out...)
2x
e|---------------------------------------------------------------------------|
B|---------------------------------------------------------------------------|
G|---------------------------------------------------------------------------|
D|----666-99999-222-444-55--666-99999-222-11111------------------------------|
A|----666-99999-222-444-55--666-99999-222-11111------------------------------|
D|----666-99999-222-444-55--666-99999-222-11111------------------------------|

Prechorus:
(Ai no chikai sae...)
2x
e|---------------------------------------------------------------------------|
B|---------------------------------------------------------------------------|
G|---------------------------------------------------------------------------|
D|----22222222-11111111-00000000-11111111------------------------------------|
A|----22222222-11111111-00000000-11111111------------------------------------|
D|----22222222-11111111-00000000-11111111------------------------------------|

(Oh my Juliet...)
e|---------------------------------------------------------------------------|
B|---------------------------------------------------------------------------|
G|---------------------------------------------------------------------------|
D|----2-22222---4-44444------------------------------------------------------|
A|----2-22222---4-44444------------------------------------------------------|
D|----2-22222---4-44444------------------------------------------------------|


Chorus:
(Ne kami sama...)
3x
e|---------------------------------------------------------------------------|
B|---------------------------------------------------------------------------|
G|---------------------------------------------------------------------------|
D|----999---66-666----444---66-666-------------------------------------------|
A|----999---66-666----444---66-666-------------------------------------------|
D|----999---66-666----444---66-666-------------------------------------------|

4th time:
e|---------------------------------------------------------------------------|
B|---------------------------------------------------------------------------|
G|---------------------------------------------------------------------------|
D|----999---66-666----444---6------------------------------------------------|
A|----999---66-666----444---6-let-ring---------------------------------------|
D|----999---66-666----444---6------------------------------------------------|


Interlude:
e|---------------------------------------------------------------------------|
B|---------------------------------------------------------------------------|
G|---------------------------------------------------------------------------|
D|----------------------------------15-15-15--13--12-12h13-----11h13-11h13---|
A|----/16-16-16--14-14-14--12-12-12------------------------------------------|
D|---------------------------------------------------------------------------|

(I am the fortune's fool!...)
2x
e|---------------------------------------------------------------------------|
B|---------------------------------------------------------------------------|
G|---------------------------------------------------------------------------|
D|----666---999---11.11.11.11---4-5-------666---999---6666---4-5-------------|
A|----666---999---11.11.11.11---4-5-------666---999---6666---4-5-------------|
D|----666---999---11.11-11.11---4-5-------666---999---6666---4-5-------------|


Prechorus:
(Oroka na koi da to...)
2x
e|---------------------------------------------------------------------------|
B|---------------------------------------------------------------------------|
G|---------------------------------------------------------------------------|
D|----22222222-11111111-00000000-11111111------------------------------------|
A|----22222222-11111111-00000000-11111111------------------------------------|
D|----22222222-11111111-00000000-11111111------------------------------------|

(Oh my Juliet...)
e|---------------------------------------------------------------------------|
B|---------------------------------------------------------------------------|
G|---------------------------------------------------------------------------|
D|----2-22222---4-44444------------------------------------------------------|
A|----2-22222---4-44444------------------------------------------------------|
D|----2-22222---4-44444------------------------------------------------------|


Chorus:
(Ne kami sama...)
6-7x
e|---------------------------------------------------------------------------|
B|---------------------------------------------------------------------------|
G|---------------------------------------------------------------------------|
D|----999---66-666----444---66-666-------------------------------------------|
A|----999---66-666----444---66-666-------------------------------------------|
D|----999---66-666----444---66-666-------------------------------------------|


Final:
2x
e|---------------------------------------------------------------------------|
B|---------------------------------------------------------------------------|
G|---------------------------------------------------------------------------|
D|----666-99999-222-444-55--666-99999-222-11111------------------------------|
A|----666-99999-222-444-55--666-99999-222-11111------------------------------|
D|----666-99999-222-444-55--666-99999-222-11111------------------------------|

(Nemureru kimi to na mo naki boku wa...)
e|---------------------------------------------------------------------------|
B|---------------------------------------------------------------------------|
G|---------------------------------------------------------------------------|
D|----6---------------------66-----------------------------------------------|
A|----6-let-ring------------66-----------------------------------------------|
D|----6---------------------66-----------------------------------------------|
Добавлено: 16.06.2012
Вам также может быть интересно:
Другие материалы по этой песне:

Страница создана 09.04.2012
http://primanota.ru/lmc/oh-my-juliet-chords.htm
Привет, Гость.
Предлагаем пройти революционный курс по гитаре.
Подарок от PrimaNota.Ru, забирай!