PrimaNota.ru - самый крупный в мире бесплатный архив песенных текстов, аккордов, табулатур и нот


Livingston - Six By Four - таба, видео

Регистрация Запомнить меня
Войти через:  Facebook Google Twitter Vk Yandex Mail.ru

Livingston - Six By Four - таба, видео

Печатать
Просмотров: 131
Уроки эстрадного вокала в Санкт-Петербурге
==========================================
                Livingston
                Six By Four
Track #5 on the 2009 album "Sign Language"
==========================================

Tabbed by Pedro Macedo, A.K.A. Linkerman
Comments and ratings are very much appreciated!
E-mails to "o_samaritano-hellboy(at)sapo.pt"

UPDATE 18/Nov/2010
------------------
Corrections made by a friend:
- added missing notes on Verse;
- moved all Chorus power chords to the low E string,
as the transition slides can be heard on the album;
- corrected last bit of Verse 2 Lead riff;
- added hammer-ons on the end of the Final Chorus.

Standard tuning


Intro
e|-*12*-----*12*-----*12*-----*12*-----|
B|-----*12*-----*12*-----*12*-----*12*-|
G|-------------------------------------| x2
D|-------------------------------------|
A|-------------------------------------|
E|-------------------------------------|


Verse
e|----------------------------------------------|
B|----------------------------------------------|
G|----------------------------------------------| x5
D|-----2---1~-----------------6---4~-----4----2-| 
A|-0-0---0--------4~---22/444---4----2-2----2---|
E|------------2-2----2--------------------------|


Chorus 
e|---------------------------------------------------|
B|---------------------------------------------------|
G|---------------------------------------------------| x2
D|-77777777-\-44444444-/-1111111111111111-\-99999999-|
A|-77777777-\-44444444-/-1111111111111111-\-99999999-|
E|-55555555-\-22222222-/--9-9-9-9-9-9-9-9-\-77777777-|


Play Verse x3

  Verse 2 Lead riff
e|----16---------------------------|
B|-14-----17-16-14--14-16-17-16-14-|
G|---------------------------------|
D|---------------------------------|
A|---------------------------------|
E|---------------------------------|

e|----16---------------------------------16---------------------------|
B|-14-----17-16-14--14-16-17-16-14-----------17-16-14--14-16-17-16-14-|
G|---------------------------------16-16------------------------------| x2
D|--------------------------------------------------------------------|
A|--------------------------------------------------------------------|
E|--------------------------------------------------------------------|

e|-------------------------------------------------|
B|-17-14-17-14-17-14-17-14-19-16-19-16-19-16-19-16-|
G|-------------------------------------------------|
D|-------------------------------------------------|
A|-------------------------------------------------|
E|-------------------------------------------------|


Play Chorus


Bridge
e||-----------------------------||-----------------------------------|
B||o---------------------------o||-----------------------------------|
G||--6-6-/-8-8-/-9-9-/-11-1111--||-1313131313131313-1111111111111111-| x2
D||--x-x-/-x-x-/-x-x-/--x--x-x--||--x-x-x-x-x-x-x-x--x-x-x-x-x-x-x-x-|
A||o-4-4-/-6-6-/-7-7-/--9--9-9-o||-1111111111111111--9-9-9-9-9-9-9-9-|
E||-----------------------------||-----------------------------------|

e|-------------------------------|---------------------------------|
B|-----5---5-----4---------4-----|-----5-----5-----7---------7-----|
G|---6-------6-----6---6-----6---|---6---6-----6-----6---6-----6---| x3
D|-7-----7-----7-----7---7-----7-|-7-------7-----7-----7---7-----7-|
A|-------------------------------|---------------------------------|
E|-------------------------------|---------------------------------|


Final Chorus                                                                                     x3
e|----------------------------------------||-----------------------------------------------------||
B|----------------------------------------||o---------------------------------------------------o||
G|----------------------------------------||-----------------------------------------------------||
D|-4~444444-/-1111111111111111-\-99999999-||--77777777-\-44444444-/-1111111111111111-\-99999999--||
A|-4~444444-/-1111111111111111-\-99999999-||o-77777777-\-44444444-/-1111111111111111-\-99999999-o||
E|-2~222222-/--9-9-9-9-9-9-9-9-\-77777777-||--55555555-\-22222222-/--9-9-9-9-9-9-9-9-\-77777777--||

e|--------------------------|-------------------------------|
B|--------------------------|-------------------------------|
G|--------------------------|-------------------------------|
D|-4-44-4-44-4-44-4-44-4-44-|-4-44-4-44-4-44-4-44-4-44-/-7b-|
A|-4-44-4-44-4-44-4-44-4-44-|-4-44-4-44-4-44-4-44-4-44-/-7b-|
E|-0h22-0-22-0-22-0-22-2-22-|-0h22-0-22-0-22-0-22-2-22------|

e|--------------------------|---------------|
B|--------------------------|---------------|
G|--------------------------|---------------|
D|-4-44-4-44-4-44-4-44-4-44-|-4-44-4-44-4-4-|
A|-4-44-4-44-4-44-4-44-4-44-|-4-44-4-44-4-4-|
E|-0h22-0-22-0-22-0-22-2-22-|-0h22-0-22-0-2-|


   Final Chorus Lead riff            x3
e||----------------------------------||-------------------------------|
B||o-5b6-6--7b8--8b9-9--10b11-11-11-o||-12b13-12b13-12b13-12b13-13-13-|
G||----------------------------------||-------------------------------|
D||----------------------------------||-------------------------------|
A||o--------------------------------o||-------------------------------|
E||----------------------------------||-------------------------------|
Добавлено: 18.06.2012
Другие материалы по этой песне:
  • Аккорды и текст

Страница создана 18.06.2012
http://primanota.ru/livingston/six-by-four-chords.htm
Привет, Гость.
Предлагаем пройти революционный курс по гитаре.
Подарок от PrimaNota.Ru, забирай!