PrimaNota.ru - самый крупный в мире бесплатный архив песенных текстов, аккордов, табулатур и нот


Living Things - Monsters Of Man - таба, видео

Регистрация Запомнить меня
Войти через:  Facebook Google Twitter Vk Yandex Mail.ru

Living Things - Monsters Of Man - таба, видео

Печатать
Просмотров: 114
Band: Living Things
Song: Monsters of Man
Album: Ahead of the Lions
Tabbed by: JamesTMB (my first tab)

Updated on 8/15/08

Updated Again on 12/19/08

Half Step down (low to high: D#,G#,C#,F#,A#,D#)


Verse 1: No guitar in verse one

Chorus 1:

D#------------|------------|--------------|-------| (play four times)
A#------------|------------|--------------|-------|
F#*-----------|------------|--------------|------*|
C#*-----------|------------|------------5-|------*|
G#-7--7--5--7-|--------5---|-7-5-7--5-----|-----5-|
D#------------|--7--7------|--------------|-7-----|

After the first chorus, while the trumpets are playing,the guitar plays this 
quietly:

D#------------|--------------------|-----------|
A#------------|--------------------|-----------|
F#------------|--------------------|-----------|
C#-9----------|-12------4----------|-7----9----|
G#------------|--------------------|-----------|
D#------------|--------------------|-----------|

Verse 2: No guitar in verse two, but after the I drain the Nile part, an instrument 
this (it is transcribed for guitar)

D#-12~~~~-12~~~~|-12~~~~------10~|-12~~~~-12~~~|16~~~--------10~~~~|
A#--------------|--------12~~----|-------------|-------12~~~~~-----|
F#--------------|----------------|-------------|-------------------|
C#--------------|----------------|-------------|-------------------|
G#--------------|----------------|-------------|-------------------|
D#--------------|----------------|-------------|-------------------|


Chorus 2: Same as chorus 2 except slide up the neck on the Low E String after the fouth time.

Guitar Break:

D#------------|--------------|------------|------------|
A#------------|--------------|------------|------------| Repeat three times
F#------------|-------7-7-7--|-----------|--------7-7-7|
C#-2--2--2--2-|-2--2--7-7-7--|-2--2--2--2-|-2  2--7 7 7|
G#-2--2--2--2-|-2--2--5-5-5--| 2--2--2- 2-- 2- 2--5 5 5|
D#-0--0--0--0-|-0--0---------|-0--0--0--0-|-0--0-------|

D#------------|----------------|-------------|---------------|
A#------------|----------------|-------------|---------------| repeat 4 times
F#------------|-4-4---7--7-7-7-|-------------|-4-4---7--7-7-7|
C#-2--2--2--2-|-4-4---7--7-7-7-|-2--2--2--2--|-4-4---7--7-7-7|
G# 2--2--2--2-|-2-2---5--5-5-5-|-2--2--2--2  | 2 2 - 5  5-5 5|
D#-0--0--0--0-|-----0----------|-0--0--0--0--|-----0---------|

The End

Good Comments or corrections are welcome.
Добавлено: 09.06.2012
Вам также может быть интересно:
Другие материалы по этой песне:
  • Аккорды и текст

Страница создана 09.06.2012
http://primanota.ru/living-things/monsters-of-man-chords.htm
Привет, Гость.
Предлагаем пройти революционный курс по гитаре.
Подарок от PrimaNota.Ru, забирай!