PrimaNota.ru - самый крупный в мире бесплатный архив песенных текстов, аккордов, табулатур и нот


Living Sacrifice - Sellout - текст песни, таба, видео

Регистрация Запомнить меня
Войти через:  Facebook Google Twitter Vk Yandex Mail.ru

Living Sacrifice - Sellout - текст песни, таба, видео

Печатать
Просмотров: 124
Living Sacrifice - Sellout


. - Palm Mute

\ - Slide Down

/ - Slide Up


Drop-D tuning (D-A-D-G-B-e)

Intro - Guitar 1 ( 0:01 - 0:32 )
---------------------------------|
---------------------------------|
-----0-----0-----0-----0---------|   12x
---6-----6-----6-----6-------0---|
-4-----4-----4-----4-------4-----|
-------------------------5-----4-|


Guitar 2 ( 0:22 - 0:32 )
-------------------------------------------------|
-------------------------------------------------|
-------------------------------------------------|
-------------------------------------------------|
-------------------------------------------------|
-0-3-2-3-6-6-0-3-2-3-266-0-3-2-3-6-6-0-3-2-3-266-|


Guitar 2 ( 0:33 - 0:43 )
---------------------------------------------------|
---------------------------------------------------|
---------------------------------------------------|
-0-3-2-3-6-6-0-3-2-3-266-0-3-2-3-6-6-0-3-2-0000000-|
-0-3-2-3-6-6-0-3-2-3-266-0-3-2-3-6-6-0-3-2-0000000-|
-0-3-2-3-6-6-0-3-2-3-266-0-3-2-3-6-6-0-3-2-0000000-|
                                           .......

Guitar 2 ( 0:44 - 0:53 )
-------------------------------------------------|
-------------------------------------------------|
-------------------------------------------------|
-0-3-2-3-6-6-0-3-2-3-266-0-3-2-3-6-6-0-3-2-3-266-|
-0-3-2-3-6-6-0-3-2-3-266-0-3-2-3-6-6-0-3-2-3-266-|
-0-3-2-3-6-6-0-3-2-3-266-0-3-2-3-6-6-0-3-2-3-266-|


Guitar 1 ( 0:44 - 0:53 )
-------------------------------------------------|
-------------------------------------------------|
-5-8-7-8-4-4-5-8-7-8-4444-5-8-7-8-4-4-5-8-7-8-44-|
-5-8-7-8-4-4-5-8-7-8-4444-5-8-7-8-4-4-5-8-7-8-44-|
-3-6-5-6-2-2-3-6-5-6-2222-3-6-5-6-2-2-3-6-5-6-22-|
-------------------------------------------------|
                     ....


guitars 1 and 2 ( 0:53 - 1:02 )
------------------|
------------------|
------------------|   4x
------------------|
-0000333322226666-
-0000333322226666-
 ................


Guitar 1 ( 1:02 - 1:05 )
--------------------------------------|
--------------------------------------|
--------------------------------------|
----------11-11------11-11------11-11-|
----------9--9-------9--9-------9--9--|
-000-000--------000--------000--------|
 ... ...        ...        ...


Guitar 1 ( 1:05 - 1:11 )
---------------------------------------------------------------------|
---------------------------------------------------------------------|
---------------------------------------------------------------------|
---------11-11-----11-11-----11-11---------11-11-----11-11-----11-11-|
---------9--9------9--9------9--9----------9--9------9--9------9--9--|
-000-000-------000-------000-------000-000-------000-------000-------|
 ... ...       ...       ...       ... ...       ...       ...


Guitar 1 ( 1:10 - 1:15 )
---------------------------------------------------------------------------|
---------------------------------------------------------------------------|
---------------------------------------------------------------------------|
---------12--12 ----12--12-----12--12---------12--12-----12--12-----12--12-|
---------10--10-----10--10-----10--10---------10--10-----10--10-----10--10-|
-000-000--------000--------000--------000-000--------000--------000--------|
 ... ...        ...        ...        ... ...        ...        ...


Guitar 1 ( 1:15 - 1:20 )
----------------------------------------------------------------------------|
----------------------------------------------------------------------------|
----------------------------------------------------------------------------|
----------11-11------11-11------11-11----------11-11------11-11-------11-11-|
----------9--9-------9--9-------9--9-----------9--9-------9--9--------9--9--|
-000-000--------000--------000--------000-000--------000---------000--------|
 ... ...        ...        ...        ... ...        ...         ...


Guitar 1 ( 1:20 - 1:25 )
---------------------------------------------------------------------|
---------------------------------------------------------------------|
---------------------------------------------------------------------|
---------12-12 ----12-12-----12-12---------12-12-----12-12-----12-12-|
---------10-10-----10-10-----10-10---------10-10-----10-10-----10-10-|
-000-000-------000-------000-------000-000-------000-------000-------|
 ... ...       ...       ...       ... ...       ...       ...

Guitar 1 ( 1:25 - 1:28 )
---------------------------------|
---------------------------------|
---------------------------------|
---------11-11----11-11----11-11-|
---------9--9-----9--9-----9--9--|
-000-000-------------------------|
 ... ...


Guitar 1 ( 1:28 - 1:33 )
---------------------------------------------------------------------|
---------------------------------------------------------------------|
---------------------------------------------------------------------|
---------11-11-----11-11-----11-11---------11-11-----11-11-----11-11-|
---------9--9------9--9------9--9----------9--9------9--9------9--9--|
-000-000-------000-------000-------000-000-------000-------000-------|
 ... ...       ...       ...       ... ...       ...       ...


Guitar 1 ( 1:33 - 1:38 )
-----------------------------------------------------------------------|
-----------------------------------------------------------------------|
-----------------------------------------------------------------------|
---------12-12 ------12-12-----12-12---------12-12-----12-12-----12-12-|
---------10-10-------10-10-----10-10---------10-10-----10-10-----10-10-|
-000-000-------000---------000-------000-000-------000-------000-------|
 ... ...       ...         ...       ... ...       ...       ...


Guitar 1 ( 1:38 - 1:43 )
---------------------------------------------------------------------|
---------------------------------------------------------------------|
---------------------------------------------------------------------|
---------11-11-----11-11-----11-11---------11-11-----11-11-----11-11-|
---------9--9------9--9------9--9----------9--9------9--9------9--9--|
-000-000-------000-------000-------000-000-------000-------000-------|
 ... ...       ...       ...       ... ...       ...       ...


Guitar 1 ( 1:43 - 1:48 )
---------------------------------------------------------------------|
---------------------------------------------------------------------|
---------------------------------------------------------------------|
---------12-12 ----12-12-----12-12---------12-12-----12-12-----12-12-|
---------10-10-----10-10-----10-10---------10-10-----10-10-----10-10-|
-000-000-------000-------000-------000-000-------000-------000-------|
 ... ...       ...       ...       ... ...       ...       ...


Guitar 2 ( 1:38 - 1:48 )
---------------------------------------------------------------------------|
-------------9-9-9-9-9-9-------------------------9-9-----9-9-----10-10-----|
-----------8-------------8-8-8-8-8-8-8-8-8-8-8-8-----8-8-----8-8-------9-9-|
-6-6-6-6-6-----------------------------------------------------------------|
---------------------------------------------------------------------------|
---------------------------------------------------------------------------|

Guitar 2 continued
--------------------------------------------------------|
-10-10------10-10-----10-10-----14----------14----------|
-------9-10-------9-9-------9-9----14-14-14----14-14-14-|
--------------------------------------------------------|
--------------------------------------------------------|
--------------------------------------------------------|

Guitar 2 continued
-------------------------|
-14----14----14----14----|
----14----14----14----14-|
-------------------------|
-------------------------|
-------------------------|

Guitar 1 ( 1:48 - 1:57 )
---------------------------------------------------|
---------------------------------------------------|
---------------------------------------------------|
-0-3-2-3-6-6-0-3-2-3-266-0-3-2-3-6-6-0-3-2-3-00000-|
-0-3-2-3-6-6-0-3-2-3-266-0-3-2-3-6-6-0-3-2-3-00000-|
-0-3-2-3-6-6-0-3-2-3-266-0-3-2-3-6-6-0-3-2-3-00000-|
                                             .....


Guitar 1 ( 1:58 - 2:07 )
-------------------------------------------------|
-------------------------------------------------|
-------------------------------------------------|
-0-3-2-3-6-6-0-3-2-3-266-0-3-2-3-6-6-0-3-2-3-6-6-|
-0-3-2-3-6-6-0-3-2-3-266-0-3-2-3-6-6-0-3-2-3-6-6-|
-0-3-2-3-6-6-0-3-2-3-266-0-3-2-3-6-6-0-3-2-3-6-6-|


Guitar 1 ( 2:07 - 2:17 )
-------------------------------------------------------------------|
-------------------------------------------------------------------|
-------------------------------------------------------------------|  2x
-0-0-0-6-0-0-0--4\3--0--5\4--0--3/4--0-0-0-8-----------------------|
-0-0-0-6-0-0-0--4\3--0--5\4--0--3/4--0-0-0-8-----------------------|
-0-0-0-6-0-0-0--4\3--0--5\4--0--3/4--0-0-0-8-0-0-0-3-0-0-6-5-0-2-3-|
 . . .   . . .       .       .       . . .   . . . . . . . . . . .


Guitar 1 ( 2:17 - 2:26 )
-------------------------|
-------------------------|
-------------------------|   4x
-0-0--0-0--0-0--000006\5-|
-0-0--0-0--0-0--000006\5-|
-0-0--0-0--0-0--000006\5-|
   .  . .  . .  .....


Guitar 1 ( 2:27 - 2:56 )
-----------------------|
-----------------------|
-----------------------|   12x
-0-0--0-0--0-0--000006-|
-0-0--0-0--0-0--000006-|
-0-0--0-0--0-0--000006-|
   .  . .  . .  .....


Guitar 2 ( 2:36 - 2:46 )
-----------------------|
-----------------------|
-----------------------|
---------------------4-|
-5\4--4-4--4-4--77744--|
-----------------------|
                   ..


Guitar 2 ( 2:46 - 2:56 )
----------------------------------------------------|
-14-14-14-14----------------14-------14-14----------|
-------------12-12-12-12-12----12-12-------12-13-12-|
----------------------------------------------------|
----------------------------------------------------|
----------------------------------------------------|

Guitar 2 continued
-------------------------------------------------------|
----------------------------------------------14-14-14-|
-10-10-10-10-10-10-10-12-10-10-10-12-10-10-10----------|
-------------------------------------------------------|
-------------------------------------------------------|
-------------------------------------------------------|

Guitar 2 continued
----------------------------------------|
----------------14----14----14----------|
-12-12-12-12-12----12----12----12-12-13-|
----------------------------------------|
----------------------------------------|
----------------------------------------|

Guitar 2 continued
-------------------------------------------|
----------------------------------------14-|
-10-10-10-10-10-10-10-12-12-12-12-12-10----|
-------------------------------------------|
-------------------------------------------|
-------------------------------------------|


Guitar 1 ( 2:56 - 3:06 )
------------------------------------|
------------------------------------|
------------------------------------|   4x
-0-0-0-6-0-0-0--4\3--0--5\4--0--3/4-|
-0-0-0-6-0-0-0--4\3--0--5\4--0--3/4-|
-0-0-0-6-0-0-0--4\3--0--5\4--0--3/4-|
 . . .   . . .       .       .


Guitar 1 ( 3:06 - 3:16 )
--------------------------------------------------|
--------------------------------------------------|
--------------------------------------------------|
-------------0-3-2-3-66660-3-2-3-6-6-0-3-2-3-6666-|
-------------0-3-2-3-66660-3-2-3-6-6-0-3-2-3-6666-|
-0-3-2-3-6-6-0-3-2-3-66660-3-2-3-6-6-0-3-2-3-6666-|


Guitar 1 ( 3:16 - 3:25 )
-------------------------------------------------|
-------------------------------------------------|
-------------------------------------------------|
-0-3-2-3-6-6-0-3-2-3-266-0-3-2-3-6-6-0-3-2-3-266-|
-0-3-2-3-6-6-0-3-2-3-266-0-3-2-3-6-6-0-3-2-3-266-|
-0-3-2-3-6-6-0-3 2-3-266-0-3-2-3-6-6-0-3-2-3-266-|


Guitar 2 ( 3:21 - 3:25 )
--------------------|
--------------------|
-5--8--7--8--11--11-|   2x
-5--8--7--8--11--11-|
-3--6--5--6--9---9--|
--------------------|


Guitar 1 ( 3:25 - 3:35 )
---------------------------------------------|
---------------------------------------------|
---------------------------------------------|
-0-3-2-3-66-0-3-2-3-66-0-3-2-3-66-0-3-2-3-66-|
-0-3-2-3-66-0-3-2-3-66-0-3-2-3-66-0-3-2-3-66-|
-0-3-2-3-66-0-3-2 3-66-0-3-2-3-66-0-3-2-3-66-|


From the album - Reborn (1997) - Tooth & Nail records
Добавлено: 18.06.2012
Другие материалы по этой песне:

Страница создана 03.04.2012
http://primanota.ru/living-sacrifice/sellout-chords.htm
Привет, Гость.
Предлагаем пройти революционный курс по гитаре.
Подарок от PrimaNota.Ru, забирай!