PrimaNota.ru - самый крупный в мире бесплатный архив песенных текстов, аккордов, табулатур и нот


Living Sacrifice - Second Death - текст песни, таба, видео

Регистрация Запомнить меня
Войти через:  Facebook Google Twitter Vk Yandex Mail.ru

Living Sacrifice - Second Death - текст песни, таба, видео

Печатать
Просмотров: 121
Second Death
Living Sacrifice
Living Sacrifice

Conventional Eb

Guitar 1
Guitar 2 

NO SOLOS

Intro (Main Riff)
Guitar 2
|------------------------------------------------------------------|
|------------------------------------------------------------------|
|------------------------------------------------------------------|
|------------------------------------------------------------------|
|-7h8p7---7h8p7---7h8p7---7h8p7---5h6p5---5h6p5---6h7p6---6h7p6----|
|------0-0-----0-0-----0-0-----0-0-----0-0-----0-0-----0-0-----00--|


Guitar 1              (Increase Volume)
|------------------------------------------------------------------|
|------------------------------------------------------------------|
|--*---------------------------------------------------------------|
|-2----------------------------------------------------------------|
|-0----------------------------------------------------------------|
|-0----------------------------------------------------------------|
                                                                   |
Guitar 2                                                           |
|------------------------------------------------------------------|
|------------------------------------------------------------------|
|------------------------------------------------------------------|
|------------------------------------------------------------------|
|-7h8p7---7h8p7---7h8p7---7h8p7---5h6p5---5h6p5---6h7p6---6h7p6----|
|------0-0-----0-0-----0-0-----0-0-----0-0-----0-0-----0-0-----00--|


Both Guitars Repeat Main Riff x4

Intro Verse?????
Guitar 1&2
|------------------------------------------------------------------|
|------------------------------------------------------------------|
|------------------------------------------------------------------|
|---------------------------------------------------7-5------------|
|-7h8p7---7h8p7---7h8p7---7h8p7---5h6p5---5h6p5---7-----8-7-5------|
|------0-0-----0-0-----0-0-----0-0-----0-0-----0-0------------8-7--|


Guitar 1
|------------------------------------------------------------------|
|------------------------------------------------------------------|
|---------------------------------------------------7-5------------|
|-------------------------------------------------7-----8-7-5------|
|-7h8p7---7h8p7---7h8p7---7h8p7---5h6p5---5h6p5---------------8-7--|
|------0-0-----0-0-----0-0-----0-0-----0-0-----0-0-----------------|
                                                                   |
Guitar 2                                                           |
|------------------------------------------------------------------|
|------------------------------------------------------------------|
|---------------------------------------------------7-5------------|
|-------------------------------------------------7-----8-7-5------|
|-7h8p7---7h8p7---7h8p7---7h8p7---5h6p5---5h6p5---------------8-7--|
|------0-0-----0-0-----0-0-----0-0-----0-0-----0-0-----------------|


Intro Solo
Guitar 1
|-21fb-db----------------------------------------------------------|
|------------------------------------------------------------------|
|------------------------------------------------------------------|
|------------------------------------------------------------------|
|------------------------------------------------------------------|
|------------------------------------------------------------------|
                                                                   |
Guitar 2                                                           |
|------------------------------------------------------------------|
|------------------------------------------------------------------|
|------------------------------------------------------------------|
|------------------------------------------------------------------|
|-7h8p7---7h8p7---7h8p7---7h8p7---5h6p5---5h6p5---6h7p6---6h7p6----|
|------0-0-----0-0-----0-0-----0-0-----0-0-----0-0-----0-0-----00--|

Guitar 1
|-16b------------14b--------------21b-db---------------------------|
|---------------------------------20b-db---------------------------|
|------------------------------------------------------------------|
|------------------------------------------------------------------|
|------------------------------------------------------------------|
|------------------------------------------------------------------|
                                                                   |
Guitar 2                                                           |
|------------------------------------------------------------------|
|------------------------------------------------------------------|
|------------------------------------------------------------------|
|------------------------------------------------------------------|
|-7h8p7---7h8p7---7h8p7---7h8p7---5h6p5---5h6p5---6h7p6---6h7p6----|
|------0-0-----0-0-----0-0-----0-0-----0-0-----0-0-----0-0-----00--|

Verse Riff 
Guitar 2
|---------------------------------------------------------|
|---------------------------------------------------------|
|---------------------------------------------------------|
|---------------------------------------------------------|
|--------3----4----5------6----------3----4----5------8---|
|-000000-1-00-2-00-3-0000-4---000000-1-00-2-00-3-0000-6---|


Guitar 1
|---------------------------------------------------------|
|---------------------------------------------------------|
|---------------------------------------------------------|
|---------------------------------------------------------|
|--------3----4----5-----------------3----4---------------|
|--------1----2----3-----------------1----2---------------|
                                                          |
Guitar 2                                                  |
|---------------------------------------------------------|
|---------------------------------------------------------|
|---------------------------------------------------------|
|---------------------------------------------------------|
|--------3----4----5------6----------3----4---------------|
|-000000-1-00-2-00-3-0000-4---000000-1-00-2---------------|


Verse Riff A
Guitar 1&2
|---------------------------------------------------------|
|---------------------------------------------------------|
|---------------------------------------------------------|
|---------------------------------------------------------|x2
|--------3----4----5------6----------3----4----5------8---|
|-000000-1-00-2-00-3-0000-4---000000-1-00-2-00-3-0000-6---|

Verse Riff B???????
Guitar 1&2
|---------------------------------------------------------------------|
|---------------------------------------------------------------------|
|---------------------------------------------------------------------|
|---------------------------------------------------------------------|x2
|---------------------------------3-----------------------------4-4-3-|
|-22222222-3p2-22-4p2-22-5p2-2222----22222222-3p2-22-2p3-22-5p2-------|
                                                                 |

Repeat Verse Riff A
Repeat Verse Riff B

Riff C
Guitar 1&2
|---------------------------------------------------------------|
|---------------------------------------------------------------|
|---------------------------------------------------------------|x4
|------------------------------------------------------10-9--8--|
|----------8----7----8---5-7-8-----------8----7----8---8--7--6--|
|-00000000-6-00-5-00-6-0-3-5-6--00000000-6-00-5-00-6-0----------|

Riff D
Guitar 1&2
|-----------------------------------------------------------------|
|-----------------------------------------------------------------|
|-----------------------------------------------------------------|
|--------------------------------------------------------10-9--8--|x2
|---------8-----7-----8---5-7-8----------8-----7-----8---8--7--6--|
|-0-0-0-0-6-0-0-5-0-0-6-0-3-5-6--0-0-0-0-6-0-0-5-0-0-6-0----------|


Riff E
Guitar 1&2
|-----------------------------|
|-----------------------------|
|-----------------------------|
|-----------------------------|
|-2-------------/12h13p12\----|
|-0---------------------------|

Guitar 1
|-----------------------------|
|-----------------------------|
|-----------------------------|
|-----------------------------|
|-2--------------12h13p12\----|
|-0-------0-0--0--------------|
                              |
Guitar 2                      |
|-----------------------------|
|-----------------------------|
|-----------------------------|
|-----------------------------|
|-2--------------12h13p12\----|
|-0---------------------------|

Guitar 1
|-----------------------------|
|-----------------------------|
|-----------------------------|
|-----------------------------|
|-2--------------12h13p12\----|
|-0-------0-0--0--------------|
                              |
Guitar 2                      |x4
|-----------------------------|
|-----------------------------|
|-----------------------------|
|-----------------------------|
|-2--------------7-h8-p7-\----|
|-0-------0-0--0--------------|

Guitar 1
|------------------------------------------------------------------|
|------------------------------------------------------------------|
|------------------------------------------------------------------|
|------------------------------------------------------------------|
|--Db--------------------------------------------------------------|
|-0~~~~~~~~~~~~~~~~~~~~~~~~~~~~~~~~~~~~~~~~~~~~~~~~~~~~~~~~~~~~~~~~|
                                                                   |
Guitar 2                                                           |
|------------------------------------------------------------------|
|------------------------------------------------------------------|
|------------------------------------------------------------------|
|------------------------------------------------------------------|
|-7h8p7---7h8p7---7h8p7---7h8p7---5h6p5---5h6p5---6h7p6---6h7p6----|
|------0-0-----0-0-----0-0-----0-0-----0-0-----0-0-----0-0-----00--|


Guitar 1
|------------------------------------------------------------------|
|------------------------------------------------------------------|
|------------------------------------------------------------------|
|------------------------------------------------------------------|
|------------------------------------------------------------------|
|~~~~~~~~~~~~~~~~~~~~~~~~~~~~~~~~~~~~~~~~~~~~~~~~~~~~~~~~~~~~~~~~~~|
                                                                   |
Guitar 2                                                           |
|------------------------------------------------------------------|
|------------------------------------------------------------------|
|------------------------------------------------------------------|
|------------------------------------------------------------------|
|-7h8p7---7h8p7---7h8p7---7h8p7---5h6p5---5h6p5---6h7p6---6h7p6----|
|------0-0-----0-0-----0-0-----0-0-----0-0-----0-0-----0-0-----00--|


Guitar 2                                                           
|------------------------------------------------------------------|
|------------------------------------------------------------------|
|------------------------------------------------------------------|
|------------------------------------------------------------------|x2
|-7h8p7---7h8p7---7h8p7---7h8p7---5h6p5---5h6p5---6h7p6---6h7p6----|
|------0-0-----0-0-----0-0-----0-0-----0-0-----0-0-----0-0-----00--|

Solo Rhythm
Guitar 2
|---------------------------------------------------------|
|---------------------------------------------------------|
|---------------------------------------------------------|
|---------------------------------------------------------|x2
|--------3----4----5------6----------3----4----5------8---|
|-000000-1-00-2-00-3-0000-4---000000-1-00-2-00-3-0000-6---|

|---------------------------------------------------------------------|
|---------------------------------------------------------------------|?????
|---------------------------------------------------------------------|
|---------------------------------------------------------------------|x2
|---------------------------------3-----------------------------4-4-3-|
|-22222222-3p2-22-4p2-22-5p2-2222----22222222-3p2-22-2p3-22-5p2-------|

Second Verse
Guitar 1&2
|---------------------------------------------------------|
|---------------------------------------------------------|
|---------------------------------------------------------|
|---------------------------------------------------------|x2
|-2-----3p0---4p0---5p0---6---2-----3p0---4p0---5p0---8---|
|-0-0-0-1p0-0-2p0-0-3p0-0-4---0-0-0-1p0-0-2p0-0-3p0-0-6---|

Guitar 1&2????
|-------------------------------------------------------------|
|-------------------------------------------------------------|
|-------------------------------------------------------------|x2
|-----------------------------5-----------------------------5-|
|-----------------------------3-----------------------------3-|
|-2-2-2-2-3p2-2-4p2-2-5p2-2-2---2-2-2-2-3p2-2-4p2-2-5p2-2-2---|

End Of Verse
Guitar 1&2
|---------------------------------------------------------|
|---------------------------------------------------------|
|---------------------------------------------------------|
|---------------------------------------------------------|
|-2-----3p0---4p0---5p0---6---2-----3p0---4p0---5p0---8-8-|
|-0-0-0-1p0-0-2p0-0-3p0-0-4---0-0-0-1p0-0-2p0-0-3p0-0-6-6-|

|---------------------------------------------------------|
|---------------------------------------------------------|
|---------------------------------------------------------|
|---------------------------------------------------------|x2
|-2-----3p0---4p0---5p0---6---2-----3p0---4p0---5p0---8---|
|-0-0-0-1p0-0-2p0-0-3p0-0-4---0-0-0-1p0-0-2p0-0-3p0-0-6---|

Riff F???
All Ones
|---------------------------------------------------------------------|
|---------------------------------------------------------------------|
|---------------------------------------------------------------------|
|---------------------------------------------------------------------|x2
|---------------------------------2-----------------------------3-3-2-|
|-11111111-2p1-11-3p1-11-4p1-1111----11111111-2p1-11-3p1-11-4p1-------|

Repeat Riff C
Добавлено: 12.07.2012
Другие материалы по этой песне:
  • Аккорды и текст

Страница создана 02.04.2012
http://primanota.ru/living-sacrifice/second-death-chords.htm
Привет, Гость.
Предлагаем пройти революционный курс по гитаре.
Подарок от PrimaNota.Ru, забирай!