PrimaNota.ru - самый крупный в мире бесплатный архив песенных текстов, аккордов, табулатур и нот


Living Sacrifice - Reject - текст песни, таба, видео

Регистрация Запомнить меня
Войти через:  Facebook Google Twitter Vk Yandex Mail.ru

Living Sacrifice - Reject - текст песни, таба, видео

Печатать
Просмотров: 85
		   Artisit:Living Sacrifice
Song:Reject
Album:reborn
Label:Solid State/Tooth and Nail
The low E is double flat tuned, or down to D
P.M.---------------------------]

    --------------------------------- |
    --------------------------------- |
    ---------------------------------*|
    -0-0-0-00-0-0-00-0-0-0-00-0-0-1-- |
    -0-0-0-00-0-0-00-0-0-0-00-0-0-1--*|
    -0-0-0-00-0-0-00-0-0-0-00-0-0-1-- |

Yo,dis is a repeat, do it like 3x 

Then just hold this...

---
---
---
-0-
-0-
-0-

Then he launches into the vocals.....

And then he does some odd solos.....
The chorus is.....

--------------
--------------
--------------
--------------
0-5-0-4-3-1---
0-5-0-4-3-1---
0-5-0-4-3-1---
Etc. Etc. Repeat about 5 times.If you figger out the solo, post it, and then
just hold my arms while you beat some talent into me.
     
Добавлено: 05.08.2013
Вам также может быть интересно:
Другие материалы по этой песне:
  • Аккорды и текст

Страница создана 29.02.2012
http://primanota.ru/living-sacrifice/reject-chords.htm
Привет, Гость.
Предлагаем пройти революционный курс по гитаре.
Подарок от PrimaNota.Ru, забирай!