PrimaNota.ru - самый крупный в мире бесплатный архив песенных текстов, аккордов, табулатур и нот


Living Sacrifice - Obstruction - текст песни, таба, видео

Регистрация Запомнить меня
Войти через:  Facebook Google Twitter Vk Yandex Mail.ru

Living Sacrifice - Obstruction - текст песни, таба, видео

Печатать
Просмотров: 96
Obstruction
Living Sacrifice
Living Sacrifice

Conventional Eb

Guitar 1
Guitar 2

Intro
Random Dive Bombs At Start

Guitar 1
|----------------------------------|
|----------------------------------|
|----------------------------------|
|-7777777777777777-----------------|
|-55555555555555556666666666666666-|
|-----------------4444444444444444-|
                                    x2
Guitar 2
|----------------------------------|
|-Acoustic-Riff--------------------|
|----------------------------------|
|----------------------------------|
|----------------------------------|
|----------------------------------|

Guitar 1&2
|----------------------------------|
|----------------------------------|
|----------------------------------|x4
|-7777777777777777-----------------|
|-55555555555555556666666666666666-|
|-----------------4444444444444444-|

Guitar 1&2
|----------------------------------|
|----------------------------------|
|----------------------------------|
|-7-------8-------7----------------|x3
|-5-------6-------5--------6-------|
|--------------------------4---4444|

Guitar 1&2
|----------------------------------|
|----------------------------------|
|----------------------------------|
|-7-------8-------7-----------x16--|
|-5-------6-------5------(-66-)----|
|------------------------(-44-)----|

Main Riff
Guitar 1&2
|-----------------------------------------------------|
|-----------------------------------------------------|
|-----------------------------------------------------|x4
|-----------------------------------------------------|
|-2----6----5----8----7---9-8----6----5---8\-2-3-2-3--|
|-0-00-4-00-3-00-6-00-5-0-7-6-00-4-00-3-0-6\-0-1-0-1--|

Verse
Guitar 1&2
|-----------------------------------------------------|
|-----------------------------------------------------|
|-----------------------------------------------------|x4
|-----------------------------------------------------|
|-2----6----5----8----7---9-8----6----5---8\-2-3-2-3--|
|-0-00-4-00-3-00-6-00-5-0-7-6-00-4-00-3-0-6\-0-1-0-1--|

Pre-Chorus
Guitar 1&2
|-------------------------------|
|-------------------------------|
|-------------------------------|
|-------------------------------|
|---------10---9-----------7-8--|
|-0-000-0-8-00-7-000-0-000------|

Guitar 1                        Guitar 2
|-------------------------------|-------------------------------|
|-------------------------------|-------------------------------|
|-------------------------------|-------------------------------|
|-------------------------------|--------------------10--9---8--|
|-------10---9-------10--9---8--|-------10---9------------------|
|-000-0-8-00-7-000-0------------|-000-0-8-00-7-000-0------------|

Guitar 1&2
|-------------------------------|
|-------------------------------|
|-------------------------------|
|-------------------------------|
|-------10---9-------8-7--------|
|-000-0-8-00-7-000-0------------|

Guitar 1&2
|-------------------------------|
|-------------------------------|
|-------------------------------|
|-------------------------------|
|--------10---9-7-8-4-----------|
|-000-00-8-00-7-5-6-2-----------|

Chorus
Guitar 1&2
|-------------------------|
|-------------------------|
|-------------------------|
|-------------------------|x3
|-2---8-7---7-6---6-5---3-|
|-0-0-6-5-0-5-4-0-4-3-0-1-|

|-------------------|
|-------------------|
|-------------------|
|-------------------|
|-2---8-7---6-6-5-5-|
|-0-0-6-5-0-4-4-3-3-|

Repeat Main Riff 
Repeat Verse
Repeat Pre-Chorus x2
Repeat Chorus

Solo Part
Guitar 1&2
|-----------------------------------------------------------------|
|-----------------------------------------------------------------|
|-----------------------------------------------------------------|
|-8---------------8---------------8---------------8---------------|x2
|-6---------------6---------------6---------------6---------------|
|-6-000-000-000-0-6-000-000-000-0-6-000-000-000-0-6-000-000-000-0-|

Solo
Guitar 1
|-------------------15--------------------22------------|
|----------------14----14--------------21----21---------|
|-14---------12-------------12--/18-19----------19-18-19|
|-------------------------------------------------------|
|-------------------------------------------------------|
|-------------------------------------------------------|

|----22-------------22----------------------------------|
|-21----21-------21----21---------------15~~~~----------|
|----------19-18----------19-18-19\\--------------------|
|-------------------------------------------------------|
|-------------------------------------------------------|
|-------------------------------------------------------|

|-------------------------------------------------------|
|-------------------------------------------------------|
|-------------------------------------------------------|
|-------------------------------------------------------|
|-------------------------------------------------------|
|-------------------------------------------------------|

|-------------------------------------------------------|
|-------------------------------------------------------|
|-------------------------------------------------------|
|-------------------------------------------------------|
|-------------------------------------------------------|
|-------------------------------------------------------|

|-------------------------------------------------------|
|-------------------------------------------------------|
|-------------------------------------------------------|
|-------------------------------------------------------|
|-------------------------------------------------------|
|-------------------------------------------------------|


Solo Rhythm 
Guitar 2
|-----------------------------------------------------------------|
|-----------------------------------------------------------------|
|-----------------------------------------------------------------|
|-8---------------8---------------8---------------8---------------|x2
|-6---------------6---------------6---------------6---------------|
|-6-000-000-000-0-6-000-000-000-0-6-000-000-000-0-6-000-000-000-0-|

|-------------------------|
|-------------------------|
|-------------------------|
|-------------------------|x3
|-2---8-7---7-6---6-5---3-|
|-0-0-6-5-0-5-4-0-4-3-0-1-|

|-------------------|
|-------------------|
|-------------------|
|-------------------|
|-2---8-7---6-6-5-5-|
|-0-0-6-5-0-4-4-3-3-|

Repeat Chorus

Guitar 1&2
|----------------------------------|
|----------------------------------|
|----------------------------------|x2
|-7777777777777777-----------------|
|-55555555555555556666666666666666-|
|-----------------4444444444444444-|

Second Solo
Guitar 2
|-------------------------------------------------------|
|-------------------------------------------------------|
|-7--------/8---7h8-5---3-2-------------0-2--3----------|
|------------------------------1------0--------1--------|
|---------------------------------------------------3---|
|-------------------------------------------------------|

|-x-15-14-----------------------------------------------|
|-------------------------------------------------------|
|-----------------/9~~~-------B-u-i-l-d--u-p------------|
|-------------------------------------------------------|
|-------------------------------------------------------|
|-------------------------------------------------------|

|-------------------------------------------------------|
|-------------------------------------------------------|
|-------------------------------------------------------|
|-------------------------------------------------------|
|-------------------------------------------------------|
|-------------------------------------------------------|


|-------------------------------------------------------|
|-------------------------------------------------------|
|-------------------------------------------------------|
|-------------------------------------------------------|
|-------------------------------------------------------|
|-------------------------------------------------------|

|-------------------------------------------------------|
|-------------------------------------------------------|
|-------------------------------------------------------|
|-------------------------------------------------------|
|-------------------------------------------------------|
|-------------------------------------------------------|

|-------------------------------------------------------|
|-------------------------------------------------------|
|-------------------------------------------------------|
|-------------------------------------------------------|
|-------------------------------------------------------|
|-------------------------------------------------------|

Solo Rhythm 
Guitar 1
|----------------------------------|
|----------------------------------|
|----------------------------------|x2
|-7777777777777777-----------------|
|-55555555555555556666666666666666-|
|-----------------4444444444444444-|

|----------------------------------|
|----------------------------------|
|----------------------------------|
|-777777778888888877777777---------|
|-55555555666666665555555566666666-|
|-------------------------44444444-|

|----------------------------------|
|----------------------------------|
|----------------------------------|
|-777777778888888877777777--(x16)--|
|-55555555666666665555555566-------|
|-------------------------44-------|

|-----------------------------------------------------|
|-----------------------------------------------------|
|-----------------------------------------------------|x2
|-----------------------------------------------------|
|-2----6----5----8----7---9-8----6----5---8\-2-3-2-3--|
|-0-00-4-00-3-00-6-00-5-0-7-6-00-4-00-3-0-6\-0-1-0-1--|

Repeat Verse x3 


Fourth Time
Guitar 1&2
|-------------------------------------------|
|-------------------------------------------|
|-------------------------------------------|
|-------------------------------------------|
|-2----6----5----8----7---9-8----6----66-55-|
|-0-00-4-00-3-00-6-00-5-0-7-6-00-4-00-44-33-|

Guitar 1&2
|-----------------------------------------------------|
|-----------------------------------------------------|
|-----------------------------------------------------|
|-----------------------------------------------------|
|-2----6----5----8----7---9-8----6----5---8\-2-3-2-3--|
|-0-00-4-00-3-00-6-00-5-0-7-6-00-4-00-3-0-6\-0-1-0-1--|

|-----------------------------------------------------|
|-----------------------------------------------------|
|-----------------------------------------------------|
|-----------------------------------------------------|
|-2----6----5----8----7---9-8----6----5---8\-2-3-2-3--|
|-0-00-4-00-3-00-6-00-5-0-7-6-00-4-00-3-0-6\-0-1-0-1--|
Добавлено: 27.07.2012
Другие материалы по этой песне:
  • Аккорды и текст

Страница создана 23.02.2012
http://primanota.ru/living-sacrifice/obstruction-chords.htm
Привет, Гость.
Предлагаем пройти революционный курс по гитаре.
Подарок от PrimaNota.Ru, забирай!