PrimaNota.ru - самый крупный в мире бесплатный архив песенных текстов, аккордов, табулатур и нот


Living Colour - Know Unknow - таба, видео

Регистрация Запомнить меня
Войти через:  Facebook Google Twitter Vk Yandex Mail.ru

Living Colour - Know Unknow - таба, видео

Печатать
Просмотров: 107
Band: Living Colour (Vernon Reid & Masque)

Title: Know Unknow

Album: Know Unknow

Tabbed By Damiano Fassari

This song is my favourite of this album...but in the last part there are some fast 
in E major scale
that aren't write here...


e|-----------------------|---------------------|-----------------------|-------------------------|
B|-----------------------|-------13/15-w-w-w-w-|-----------------------|-------13/15-w-15b(16)---|
G|12/14-w--14h15h17-12-w-|-12p10---------------|-12/14-w-14h15h17-12-w-|-12p10-------------------|
D|-----------------------|---------------------|-----------------------|-------------------------|
A|-----------------------|---------------------|-----------------------|-------------------------|
E|-----------------------|---------------------|-----------------------|-------------------------|


|------------------------|---------------------|-----------------------|
|------------------------|-------13/15-w-w-w-w-|-13p11p10--------------|
|-12/14-w--14h15h17-12-w-|-12p10---------------|----------14-w-w-w-12--|
|------------------------|---------------------|-----------------------|
|------------------------|---------------------|-----------------------|
|------------------------|---------------------|-----------------------|

                             |  p.m |    |  p.m |
|------------------------|---------------------------|-----------------|
|------------------------|----------15----------15-w-|-----------------|
|-12/14-w--14h15h17-12-W-|-10-10-10----10-10-10------|-----------------|
|------------------------|---------------------------|-10-12b(13)-12-w-|
|------------------------|---------------------------|-----------------|
|------------------------|---------------------------|-----------------|


|------------------------|---------------------------|-----------------|
|------------------------|-------13/15-w-w-w-15-w-w--|-10p11p10--------|
|-12/14-w--14h15h17-12-w-|-12p10---------------------|----------14-w-w-|
|------------------------|---------------------------|-----------------|
|------------------------|---------------------------|-----------------|
|------------------------|---------------------------|-----------------|


|------------------------|-------------------------------------|-------------------------|
|------------------------|-------------------------------------|-------------------------|
|-12 12b(14)-12b(16)-----|-15/17----------15/17----------------|-------------------------|
|------------------------|-------15h17-15-------15h17-17/19p15-|-18p17p15----18p17p15----|
|------------------------|-------------------------------------|----------17----------17-|
|------------------------|-------------------------------------|-------------------------|


|------------------------|----------------------------|----------------------------|
|------------------------|----------------------------|----------------------------|
|-15/17----------18-w-w-w|-15/17----------15/17-------|-14----12----10-15/17-------|
|-------15h17-15---------|-------15h17-15-------15h17-|----15----13----------17h17-|
|------------------------|----------------------------|----------------------------|
|------------------------|----------------------------|----------------------------|

                                                                    T        T        T
|---------------------|---------------------|---------------------|----------------------------|
|---------------------|---------------------|-------13/15-w-w-w-w-|-11-9p8p6-11-9p8p6-11-9p8p6-|
|----17/18-17-15-12-w-|-12/14-w-14h15h17-12-|-12p10---------------|----------------------------|
|-15------------------|---------------------|---------------------|----------------------------|
|---------------------|---------------------|---------------------|----------------------------|
|---------------------|---------------------|---------------------|----------------------------|


|---------------------|--------------------------------|--------------------------------|
|---------------------|----------------13/15-w-15b(16)-|------------------13------------|
|-12/14-w-14h15h17-12-|-10/12-10-10--------------------|-12/14-w-12h14h15----12h14-12-w-|
|---------------------|-------------12-----------------|--------------------------------|
|---------------------|--------------------------------|--------------------------------|
|---------------------|--------------------------------|--------------------------------|


|-------------------------------------|------------|----------------------------|
|-------------13/15-13p11p10----------|------------|----------------------------|
|-12-12-12p10----------------12-w-w-w-|------------|-15/17----------17/17-------|
|-------------------------------------|-12/14b(17)-|-------15h17-15-------17h17-|
|-------------------------------------|------------|----------------------------|
|-------------------------------------|------------|----------------------------|

  T          T          T          T          T
|--------------------------------------------------------|
|--------------------------------------------------------|
|-14-12p10p7-14-12p10p7-14-12p10p1-17-12p10p7-19-12p10p7-|
|--------------------------------------------------------|
|--------------------------------------------------------|
|--------------------------------------------------------|


|---------------------------|-------------------------------------|
|---------------------------|-------------------------------------|
|-15/17----------18---------|-15/17----------15/17----------------|
|-------15h17-15----17b(18)-|-------15h17-15-------15h17-17-19p15-|
|---------------------------|-------------------------------------|
|---------------------------|-------------------------------------|

  T          T          T          T
|---------------------------------------------|-------------------------------------------|
|---------------------------------------------|-------------------------------------------|
|-14-12p10p7-14-12p10p7-14-12p10p7-14-12p10p7-|-15/17----------18-w-17-15-12-w-------10-w-|
|---------------------------------------------|-------15h17-15-----------------14-10------|
|---------------------------------------------|-------------------------------------------|
|---------------------------------------------|-------------------------------------------|


Now there is a keyboard and drum solo...

the song finish like this:

                               T          T          T
|----------------------------|----------------------------------|-------------------------------------|
|----------------------------|----------------------------------|----------------------------16-------|
|-12h14-15/17----------------|-14-12p10p7-14-12p10p7-14-12p10p7-|-15/17----------18-15-17-18----15-17-|
|-------------15h17-17-19p15-|----------------------------------|-------17h17-15----------------------|
|----------------------------|----------------------------------|-------------------------------------|
|----------------------------|----------------------------------|-------------------------------------|

|-------------------|-------------------------------------------------|
|-------------------|-------------------------------------------------|
|-15/17----------17-|-15/17----------18-17-15-12----------------------|
|-------15h17-15----|-------15h17-15-------------12-14-10-------------|
|-------------------|-------------------------------------10/12-w-w-w-|
|-------------------|-------------------------------------------------|


 Legend
----------------

p.m -palm muting
p - pull off
b - bend
/ - slide
~ - vibrato
W - wide vibrato
T - tapping
Добавлено: 07.07.2012
Другие материалы по этой песне:
  • Аккорды и текст

Страница создана 07.07.2012
http://primanota.ru/living-colour/know-unknow-chords.htm
Привет, Гость.
Предлагаем пройти революционный курс по гитаре.
Подарок от PrimaNota.Ru, забирай!