PrimaNota.ru - самый крупный в мире бесплатный архив песенных текстов, аккордов, табулатур и нот


Living Colour - I Want To Know - текст песни, таба, видео

Регистрация Запомнить меня
Войти через:  Facebook Google Twitter Vk Yandex Mail.ru

Living Colour - I Want To Know - текст песни, таба, видео

Печатать
Просмотров: 138
Авторы музыки: Vernon Reid
Авторы текста: Vernon Reid
I Want To Know-Living Colour

Hey this is my first tab, i think it sounds alright

Intro:
e|-----------------------------|------------------------------|
B|-----------------------------|-------------------5----------|
G|-----5-------4-2~--2/4-4-4~--|-----5-------4-2~--7b9--7p5---|
D|-----------------------------|------------------------------|
A|-2-3---0-2-3-----------------|-2-3---0-2-3------------------|
E|-----------------------------|------------------------------|

Verse:
e|-----------------------------|------------------------------|
B|-----------------------------|------------------------------|
G|-10---10-9---7~--------------|-10---10-9---7~---------------|
D|-10---10-9---7~--------------|-10---10-9---7~-------5-7-5---|
A|--8----8-7---5~-----5--------|--8----8-7---5~-----5---------|
E|----------------5/7---7p5-3--|----------------5/7-----------|

e|-----------------------------|------------------------------|
B|-----------------------------|------------------------------|
G|-10---10-9---7~--------------|-10---10-9---7~---9-----------|
D|-10---10-9---7~--------------|-10---10-9---7~---9-----------|
A|--8----8-7---5~-----5--------|--8----8-7---5~---7-----------|
E|----------------5/7---7p5-3--|------------------------------|

Chorus:
e|--------------------------------------------------------------------------|
B|--------------------------------------------------------------------------|
G|-10---10-10-9---10---10-10-9-----5----10-10-10-9-9-5-5--5/7--7-7----------|
D|-10---10-10-9---10---10-10-9-----5----10-10-10-9-9-5-5--5/7--7-7--repeatx2|
A|--8----8--8-7----8----8--8-7-----3-----8--8--8-7-7-3-3--3/5--5-5----------|
E|--------------------------------------------------------------------------|

Intro

Verse:
e|-----------------------------|------------------------------|
B|-----------------------------|------------------------------|
G|-10---10-9---7~--------------|-10---10-9---7~-------7-------|
D|-10---10-9---7~--------------|-10---10-9---7~---7/9--9p7-5--|
A|--8----8-7---5~-555555-------|--8----8-7---5~---------------|
E|-----------------------------|------------------------------|
                PM------

e|-----------------------------|------------------------------|
B|-----------------------------|------------------------------|
G|-10---10-9---7~--------------|-10---10-9---7~----2--2-------|
D|-10---10-9---7~--------------|-10---10-9---7~----3--3-------|
A|--8----8-7---5~-----5--------|--8----8-7---5~----3--3-------|
E|----------------5/7---7p5-3--|-------------------1--1-------|

e|-----------------------------|------------------------------|
B|-----------------------------|------------------------------|
G|-10---10-9---7~--------------|-10---10-9---7~-------7-------|
D|-10---10-9---7~--------------|-10---10-9---7~---7/9--9p7-5--|
A|--8----8-7---5~-555555-------|--8----8-7---5~---------------|
E|-----------------------------|------------------------------|
                PM------

e|-----------------------------|------------------------------|
B|-----------------------------|------------------------------|
G|-10---10-9---7~--------------|-10---10-9---7~---9-----------|
D|-10---10-9---7~--------------|-10---10-9---7~---9-----------|
A|--8----8-7---5~--------------|--8----8-7---5~---7-----------|
E|-----------------------------|------------------------------|

Chorus

Bridge I think
e|---------------------------------------------|
B|---------------------------------------------|
G|---------------------------------------------|
D|----5---3--5----5---3-2-3---5----3--5--------|
A|---------------------------------------5-5-5-|
E|-3----3-------3---3-------3---3--------3-3-3-|

e|--------------------------------------------------------------------------
B|--------------------------------------------------------------------------
G|-----------335533-------------------557755-----7-9-7------------335533----
D|-5-5-----55------5533----7-7-----77------------7-9-7--5-5-----55------5533
A|-3-3-3366----------------5-5-5588--------------5-7-5--3-3-3366------------
E|--------------------------------------------------------------------------

e|----------------------|
B|----------------------|
G|-10--9-----5--3~------|
D|-10--9-----5--3~------|
A|--8--7-----3--1~------|
E|----------------------|

Verse

Chorus

e|---------------------------------------------|
B|---------------------------------------------|
G|---------------------------------------------|
D|----5---3--5----5---3-2-3---5----3--5--------|
A|---------------------------------------5-5-5-|
E|-3----3-------3---3-------3---3--------3-3-3-|

Solo which i don't know. It's quite complicated

Anywho hope this sounds accurate to you
Добавлено: 01.06.2012
Другие материалы по этой песне:
  • Аккорды и текст

Страница создана 16.04.2012
http://primanota.ru/living-colour/i-want-to-know-chords.htm
Привет, Гость.
Предлагаем пройти революционный курс по гитаре.
Подарок от PrimaNota.Ru, забирай!