PrimaNota.ru - самый крупный в мире бесплатный архив песенных текстов, аккордов, табулатур и нот


Living Colour - Hemp - текст песни, таба, видео

Регистрация Запомнить меня
Войти через:  Facebook Google Twitter Vk Yandex Mail.ru

Living Colour - Hemp - текст песни, таба, видео

Печатать
Просмотров: 156
Авторы музыки: Vernon Reid

Hemp - Vernon Reid & Andrew Fairley
>From the album Stain by Living Colour
Tabbed by Walter Leser

--------------------------------------------------------------------
This is a rough arrangement - I imagine it's played through a
guitar synth on the album - so there's scope for variations on the
basic pattern.


  1   2   3   4   1   2   3   4

e:6---4---6---4-------------------|
B:--4---4---4---4-7---7---9---9---|
G:------------------6---6---6---6-|  - Repeat
D:4-------4-------8-------7-------|
A:--------------------------------|
E:--------------------------------|

  1   2   3   4   1   2   3   4

e:9-------9-------8-------8-------|
B:--7---7---7---7---7---7---7---7-|
G:--------------------------------|
D:----------------6---6---6---6---|
A:6---6---6---6-------------------|
E:--------------------------------|

  1   2   3   4   1   2   3   4

e:6-------6-------9---9---7------|
B:-------------------------------|
G:--7---7---7---7---7---7---7---7|
D:----------------6-------6------|
A:5---5---5---5------------------|
E:-------------------------------|


Any comments email walter@wallaby.demon.co.uk
[End Attached File]

--------------------------------------------------------------------|
Walter Leser    EMail walter@wallaby.demon.co.uk                    |
--------------------------------------------------------------------
Добавлено: 23.03.2012
Другие материалы по этой песне:
  • Аккорды и текст

Страница создана 23.03.2012
http://primanota.ru/living-colour/hemp-chords.htm
Привет, Гость.
Предлагаем пройти революционный курс по гитаре.
Подарок от PrimaNota.Ru, забирай!