PrimaNota.ru - самый крупный в мире бесплатный архив песенных текстов, аккордов, табулатур и нот


Living Colour - Fight The Fight - текст песни, таба, видео

Регистрация Запомнить меня
Войти через:  Facebook Google Twitter Vk Yandex Mail.ru

Living Colour - Fight The Fight - текст песни, таба, видео

Печатать
Просмотров: 105
-------------------------------------------------------------------------------
Fight The Fight - Living Colour 
Off the album Live From CBGB's
-------------------------------------------------------------------------------
Tabbed by: Isaac W      
E-mail:isaacwilk@gmail.com

I've tabbed this off a live recording, so I'm pretty sure some of it will be
improvised and not the same as the original version (off the album Time's
Up). I don't have a whammy on my guitar so I couldn't quite tell what Vernon
was doing in a few places - please point out any mistakes/make corrections.
I'll update this once I have done some more - this is only the intro.

Tuning: Standard (E A D G B e)

Tab notation:
b - bend
( ) - pitch to bend to
h - hammer on
p - pull off
/ - slide up to
\ - slide down to
< - whammy up to
> - whammy down to
tr.... - trill between notes (hammer on/pull off)
x - ghost/muted note
~~~ - vibrato
pm - palm mute
... - let ring

e|----------------------------7/9----------------12-----12/14----------------|
B|-----------------------5----------5--------10---------------14----15-------|
G|---------------5b(6)-------------------------------------------------14----|
D|---------------------------------------------------------------------------|
A|---------------------------------------------------------------------------|
E|-----5---------------------------------------------------------------------|

e|------------------------------------------------------------------14-------|
B|---12-----12-----10------10------10----------------------------15----15----|
G|-----------------------------------------------------11~~------------------|
D|------14-----12------11------12---------------------------/12--------------|
A|---------------------------------------------------------------------------|
E|--------------------------------------10b(12)b10---------------------------|

e|-----------------------------------------15---/20-20---15-15h17------------|
B|-------------------------------------17------------------------------------|
G|---14~~-14tr16........16b17------17----------------------------------------|
D|----------------------------16---------------------------------------------|
A|---------------------------------------------------------------------------|
E|---------------------------------------------------------------------------|

e|--15h17h15------15h17-----------15h17--------------------------------------|
B|-----------19---------18b(19)---------18b(19)------------------------------|
G|---------------------------------------------------------------------------|
D|--------------------------------------------------------7--9--------7--9---|
A|-----------------------------------------------------7-----------7---------|
E|--------------------------------------------------5-----------5------------|
                                                   pm          pm 
e|---------------------------------------------------------------------------|
B|---------------------------------------------------------------------------|
G|-------------------------------------------9-9h11---------------------9----|
D|--------7--9--------7--9-----------9-9/11----------9h11p9\7---7-9/11-------|
A|-----7-----------7---------------------------------------------------------|
E|--5-----------5------------/5~~--------------------------------------------|
   pm          pm     
e|--------------------------------10-----7\5--7-----7------------12----12----|
B|--------------------------7--------------------7--------10--------10-------|
G|-----------------------------7------7----------------9------9--------------|
D|--9~~~h11p9\7--------------------------------------------------------------|
A|----------------/7~~~\5----------------------------------------------------|
E|---------------------------------------------------------------------------|

e|--------------------12--------------------------------------8---12~--------|
B|----12----12---10------10---12----10---10--10\8--8--------8---8------------|
G|--9----11----9----9-------9----11----9------9\7--7----7/9------------------|
D|---------------------------------------------------------------------------|
A|---------------------------------------------------------------------------|
E|---------------------------------------------------------------------------|

e|---------12-15-14~-----------12-15-14~----------12-15-14~----------12-15---|
B|------13------------15----13-----------15----13-----------15----13---------|
G|--12-------------------12-----------------12-----------------12------------|
D|---------------------------------------------------------------------------|
A|---------------------------------------------------------------------------|
E|---------------------------------------------------------------------------|

e|-14~-----------------------------------------------------------------------|
B|-----15\-------------------------------------------------------------------|
G|-------------------------------------9.......------------------------------|
D|-------------------7--9--------7--9..........------------------------------|
A|----------------7-----------7----------------------------------------------|
E|-------------5-----------5-------------------------------------------------|
               pm         pm                   (drums in)
e|----------------------------------------------------5-----5h7--5-----------|
B|-----------------5..tr7......----------7-----7---------7-------------------|
G|-------------6-----------------------------------7-------------------------|
D|---------------------------------------------------------------------------|
A|------------------------------/7---5---------------------------------------|
E|---5-----------------------------------------------------------------------|

e|-------------8--/12--------12~~~~------------------------------------------|
B|----------------------<10--------------------------------------------------|
G|--------9----------------------------------------------------9.....--------|
D|-------------------------------------------7--9--------7--9........--------|
A|----------------------------------------7-----------7----------------------|
E|--8----------------------------------5-----------5-------------------------|
                                      pm          pm             (vocalist in)
Добавлено: 30.11.2013
Другие материалы по этой песне:
  • Аккорды и текст

Страница создана 29.02.2012
http://primanota.ru/living-colour/fight-the-fight-chords.htm
Привет, Гость.
Предлагаем пройти революционный курс по гитаре.
Подарок от PrimaNota.Ru, забирай!