PrimaNota.ru - самый крупный в мире бесплатный архив песенных текстов, аккордов, табулатур и нот


Liveonrelease - Im Afraid Of Britney Spears - аккорды и текст, таба, бас-таба, видео

Регистрация Запомнить меня
Войти через:  Facebook Google Twitter Vk Yandex Mail.ru

Liveonrelease - Im Afraid Of Britney Spears - аккорды и текст, таба, бас-таба, видео

Печатать
Просмотров: 236
Im Afraid Of Britney Spears
Liveonrelease
Song: I'm Afraid of Britney Spears
Artist: LiveonRelease
Album: Seeing Red
As tabbed by Joe Muggah

Intro
e-------------------------------------------------------
B-------------------------------------------------------
G-7-7-----------------------4---------------------------
D-7-7-x-x-x-x--7-7-x-x-x-x--4-(x8)-5-(x8)---------------
A-5-5-x-x-x-x--7-7-x-x-x-x--2------5--------------------
E-----x-x-x-x--5-5-x-x-x-x---------3--------------------

Chorus A (Guitar 1, each hit 8 times)
e-------------------------------------------------------
B-------------------------------------------------------
G-7-------4-------7-------4-----------------------------
D-7---7---4---5---7---7---4---5-------------------------
A-5---7---2---5---5---7---2---5-------------------------
E-----5-------3-------5-------3-------------------------

Chorus B (Guitar 2)
e-------------------------------------------------------
B-10-10-10--8-8-8--7-7--5-5-5--7-7-7--8-8--7-7-7--5-5-5-
G-------------------------------------------------------
D-------------------------------------------------------
A-------------------------------------------------------
E-------------------------------------------------------

(continued)
e-------------------------------------------------------
B-3-3--5-5-5--3-3-3-0-----------------------------------
G-------------------------------------------------------
D-------------------------------------------------------
A-------------------------------------------------------
E-------------------------------------------------------

Verse (each hit 8 times and palm muted)
e-------------------------------------------------------
B-------------------------------------------------------
G-4---2---7-------4---2---7-----------------------------
D-4---2---7---5---4---2---7---5-------------------------
A-2---0---5---5---2---0---5---5-------------------------
E-------------3---------------3-------------------------

Bridge (each hit 8 times)
e-------------------------------------------------------
B-------------------------------------------------------
G-8------9-----6------10-------11------8----------------
D-8--8---9--9--6--7---10--10---11--11--8--9-------------
A-6--8---7--9--4--7----8--10----9--11--6--9-------------
E----6------7-----5--------8--------9-----7-------------

Intro
Chorus A, B
Verse
Chorus A
Intro
Verse
Chorus A
Intro
Chorus A
Bridge
Intro, Chorus B
Chorus A
Chorus A, B

I'd take any one of these girls over Britney Spears
any day. A really cool tune.
     
Добавлено: 18.11.2013
Другие материалы по этой песне:
  • Аккорды и текст

Страница создана 12.03.2012
http://primanota.ru/liveonrelease/im-afraid-of-britney-spears-chords.htm
Привет, Гость.
Предлагаем пройти революционный курс по гитаре.
Подарок от PrimaNota.Ru, забирай!