PrimaNota.ru - самый крупный в мире бесплатный архив песенных текстов, аккордов, табулатур и нот


Liveonrelease - Get With It - аккорды и текст, таба, бас-таба, видео

Регистрация Запомнить меня
Войти через:  Facebook Google Twitter Vk Yandex Mail.ru

Liveonrelease - Get With It - аккорды и текст, таба, бас-таба, видео

Печатать
Просмотров: 144
Get With It
Liveonrelease
Song: Get With It
Artist: LiveonRelease
Album: Seeing Red
As tabbed by Joe Muggah

Verse
e---------------------------------------------------------
B---------------------------------------------------------
G-7-7-7---------9-9-9----------7-7-7---------9-9-9--------
D-7-7-7--7-7-7--9-9-9--4-4-4---7-7-7--7-7-7--9-9-9--4-4-4-
A-5-5-5--7-7-7--7-7-7--4-4-4---5-5-5--7-7-7--7-7-7--4-4-4-
E--------5-5-5---------2-2-2----------5-5-5---------2-2-2-
("Spit fire wheels...")

Chorus
e---------------------------------------------------------
B---------------------------------------------------------
G-7-7-7---------9-9-9----------7-7-7---------9-9-9--------
D-7-7-7--7-7-7--9-9-9--7-7-7---7-7-7--7-7-7--9-9-9--7-7-7-
A-5-5-5--7-7-7--7-7-7--7-7-7---5-5-5--7-7-7--7-7-7--7-7-7-
E--------5-5-5---------5-5-5----------5-5-5---------5-5-5-
("Get with it...")

Verse
Chorus
Verse
Chorus
Verse
Chorus

And that's it.
     
Добавлено: 26.09.2013
Другие материалы по этой песне:
  • Аккорды и текст

Страница создана 15.04.2012
http://primanota.ru/liveonrelease/get-with-it-chords.htm
Привет, Гость.
Предлагаем пройти революционный курс по гитаре.
Подарок от PrimaNota.Ru, забирай!