PrimaNota.ru - самый крупный в мире бесплатный архив песенных текстов, аккордов, табулатур и нот


Lively Ones - Surf Rider - таба, видео

Регистрация Запомнить меня
Войти через:  Facebook Google Twitter Vk Yandex Mail.ru

Lively Ones - Surf Rider - таба, видео

Печатать
Просмотров: 1493
Date: Sun, 9 Nov 1997 14:11:49 +0100
From: Siegfried Kurz 
To: Guitar OLGA 
Subject: TAB: 'Surf Rider' by 'The Lively Ones'

                       Surf Rider
                    (The Lively Ones)
Tabbed by : Siegfried Kurz

Intro :

  | . | . | . | .   | . | . | . | .   | . | . | . | .   | . | . | . | .
|-----------------|-----------------|-----------------|-----------------|
|-----------------|-----------------|-----------------|-----------------|
|-----------------|-----------------|-----------------|-----------------|
|-----7-----5-----|-----7-----5-----|-----5-----3-----|-----5-----3-----|
|-------5p7-------|-------5p7---7-5-|-------3p5-------|-------3p5---5-3-|
|-5---------------|-5---------------|-3---------------|-3---------------|
|

                                      E
  | . | . | . | .   | . | . | . | .   | . | . | . | .   | . | . | . | .
|-----------------|-----------------|-0---------------|-----------------|
|-----------------|-----------------|-0---------------|-----------------|
|-----------------|-----------------|-1---------------|-----------------|
|-----3-----1-----|-----3-----1-----|-2---------------|-2-2-0-0---------|
|-------1p3-------|-------1p3---3-1-|-2---------------|---------3-3-2-2-|
|-1---------------|-1---------------|-0---------------|-----------------|
|


|: Part 1:

  Am                Am                F                 F
  | . | . | . | .   | . | . | . | .   | . | . | . | .   | . | . | . | .
|-----------------|-----------------|-----------------|-----------------|
|---------0---1---|-------0-1-0-----|---------0---1---|-------0-1-0-----|
|-----2-----------|-----2-------2-0-|-----2-----------|-----2-------2-0-|
|-2---------------|-2---------------|-3---------------|-3---------------|
|-----------------|-----------------|-----------------|-----------------|
|-----------------|-----------------|-----------------|-----------------|

  E                                   Am                E
:|
  | . | . | . | .   | . | . | . | .   | . | . | . | .   | . | . | . | .
|-----------------|-0---0-0-0-------|-0---------------|-----------------|
|-------------0---|-3p5-5-5-3-------|-1---------------|-----------------|
|---------1-------|-----------4-2-0-|-2---------------|-----------------|
|-----2-----------|-----------------|-2---------------|-2-2-0-0---------|
|-----------------|-----------------|-0---------------|---------3-3-2-2-|
|-0---------------|-----------------|-----------------|-----------------|

Part 2:

  A7                                  D7
  | . | . | . | .   | . | . | . | .   | . | . | . | .   | . | . | . | .
|---5-----5-----5-|-------5---------|---10----10----10|-------10--------|
|-----8-----8-----|---8-------8-----|-----13----13----|---13------13----|
|-------6-----6---|-----6-------6---|-------11----11--|-----11------11--|
|-7---------------|-----------------|-12--------------|-----------------|
|-----------------|-----------------|-----------------|-----------------|
|-----------------|-----------------|-----------------|-----------------|


  | . | . | . | .   | . | . | . | .   | . | . | . | .   | . | . | . | .
|-1-----1-1-----1-|-1-----1-1-----1-|-0--0-0----------|-----------------|
|-1--h3-3-3-1h3---|-1--h3-3-3-1h3---|-3^4---3-1-------|-----------------|
|-----------------|-----------------|-----------2-0-2-|-2-2-0-2-0-------|
|-----------------|-----------------|-----------------|-----------2-0---|
|-----------------|-----------------|-----------------|-----------------|
|-----------------|-----------------|-----------------|-----------------|

On the record, the last line is played 1 Octave higher, e.g. the first tone
is on fret 13 instead of 1.
Any improvements are welcome!
                        SiegfriedKurz@swol.de
Добавлено: 23.05.2012
Другие материалы по этой песне:

Страница создана 11.04.2012
http://primanota.ru/lively-ones/surf-rider-chords.htm
Привет, Гость.
Предлагаем пройти революционный курс по гитаре.
Подарок от PrimaNota.Ru, забирай!