PrimaNota.ru - самый крупный в мире бесплатный архив песенных текстов, аккордов, табулатур и нот


Lively Ones - Exodus - таба, видео

Регистрация Запомнить меня
Войти через:  Facebook Google Twitter Vk Yandex Mail.ru

Lively Ones - Exodus - таба, видео

Печатать
Просмотров: 173


E||--------------------|--------------------|----------------------|
B||--------------------|--------------------|----------------------|
G||--------------------|--------------------|----------------------|
D||--------------------|--------------------|----------------------|
A||--------------------|--7----5------------|-------3----5---------|
E||--0----5------------|--------------------|--5--------------7----|


                                                                     
--------------------|---------------------|-------------------------|
--------------------|---------------------|-------------------------|
--------------------|---------------------|-------------------------|
--------------------|---------------------|-------------------------|
--------------------|--7----10------------|--7----10----12----------|
--3----5------------|---------------------|-------------------14----|


                                                                         
----------------------|----------------------|--------------------------|
----------------------|----------------------|--------------------------|
----------------------|----------------------|--------------------------|
----------------------|----------------------|--------------------------|
----------------------|----------------10----|--14----12----------------|
--10----12------------|----------12----------|--------------12--12------|


                                                                         
------------------------|------------------------|----------------------|
------------------------|------------------------|----------------------|
------------------------|------------------------|----------------------|
------------------------|------------------------|----------------------|
------12----------12----|--14--------------------|----------------------|
------------12----------|--------12--12----------|----------10----12----|


                                                                       
---------------------------|--------------------|---------------------|
---------------------------|--------------------|---------------------|
---------------------------|--------------------|---------------------|
---------------------------|--------------------|---------------------|
---------------------------|--------------------|---------------------|
--13---15---13---12---8----|--10----------------|--8--------7----6----|


                                                                                
----------------------------|----------------------------|---------------------|
----------------------------|----------------------------|-------10------------|
----------------------------|----------------------------|--9------------------|
----------------------------|----------------------------|---------------------|
----------------------------|----------------------------|---------------------|
--5--5-5-0--3--5--5-5-0--3--|--5--5-5-0--3--5--5-5-0--3--|---------------------|


                                                                      
--12----10------------|--------8----10----7----|---------------------|
----------------------|--10--------------------|--8----10------------|
----------------------|------------------------|---------------------|
----------------------|------------------------|---------------------|
----------------------|------------------------|---------------------|
----------------------|------------------------|---------------------|


                                                                     
---------------------|-------------------------|--------------------|
---------------------|-------------10----------|--------------------|
--9----12------------|--9----12----------11----|--7----9------------|
---------------------|-------------------------|--------------------|
---------------------|-------------------------|--------------------|
---------------------|-------------------------|--------------------|


                                                                     
---------------------|------------------------|---------------------|
---------------------|--12----10--------------|----------10---------|
----------9----12----|--------------9--9------|----------------9----|
---------------------|------------------------|---------------------|
---------------------|------------------------|---------------------|
---------------------|------------------------|---------------------|


                                                                        
------------------------|-------------------|--------------------------|
--10----12--------------|-------------------|--------------------------|
--------------9--9------|--------------7----|--9----10---12---10--9----|
------------------------|-------------------|--------------------------|
------------------------|-------------------|--------------------------|
------------------------|-------------------|--------------------------|


                                                                
--------------------|--------------------|--------------------||
--------------------|--------------------|--------------------||
--5----7------------|------5--------4----|--3----9------------||
--------------------|--------------------|-------7------------||
--------------------|--------------------|-------7------------||
--------------------|--------------------|-------5------------||




Добавлено: 02.01.2014
Другие материалы по этой песне:
  • Аккорды и текст

Страница создана 02.01.2014
http://primanota.ru/lively-ones/exodus-chords.htm
Привет, Гость.
Предлагаем пройти революционный курс по гитаре.
Подарок от PrimaNota.Ru, забирай!