PrimaNota.ru - самый крупный в мире бесплатный архив песенных текстов, аккордов, табулатур и нот


Live - You Are Not Alone - текст песни, таба, видео

Регистрация Запомнить меня
Войти через:  Facebook Google Twitter Vk Yandex Mail.ru

Live - You Are Not Alone - текст песни, таба, видео

Печатать
Просмотров: 215
Уроки эстрадного вокала в Санкт-Петербурге
You Are Not Alone

Performed By: LIVE
From the Album: "Songs from Black Mountain"
Lyrics & Music Written By: Edward Kowalczyk


Eb(D#) Tuning (Eb Ab Db Gb Bb eb) Low to high


Chords Used In Order of Appearence
(Low to High):

Note: Open chords are NOT played in this song
      This seems to be a pattern that LIVE chose for this album


D5    | x 5 7 7 x x

C5    | x 3 5 5 x x

G5    | 3 5 5 x x x

D5II  | 5 5 7 7 5 5

G     | 3 5 5 4 3 3


Verse 1:
(Note: Listen for strumming pattern on final G5)

D5             C5                 G5                        D5
So many people die every day, who lived every night without hope

                         C5
Spendin' their time just standin' in line

G5                   D5
Tuggin' on society's coat

*              C5             G5                                 D5
So many people live every day    like they ain't never gonna get old

*                     C5
Doin' their time like carps in the slime

G5
Submarines with no periscopes


(Note: Guitar 2 plays the following fill where noted):

 *  (10) is only played 2nd time
|----------------------------------|
|----------------------------------|
|--7--9p7--------------------------|
|---------10~~----(10)--12p10-9~~--|
|----------------------------------|
|----------------------------------|


Chorus 1:
(Note: Guitar 1 plays fill, Guitar 2 plays chords)

Fill:
   d u d u d    d u d u d    u u u u u u u u u u u u
|-----------------------------------------------------|
|-----------------------------------------------------|
|--9-9-9-9------7-7-7-7------7-----7-----7-----7------|
|----------7------------5------7-----7-----7-----7----|
|--------------------------------5-----5-----5-----5--|
|-----------------------------------------------------|

 D5           C5             G5                 D5
 Oooh.....                         you are not alone

 D5           C5             G5                 D5
 Oooh.....                         you are not alone


Verse 2:
(Note: Listen for strumming pattern on final G5)

D5             C5                G5                       D5
So many people keepin' the pace, just the other side of grace

                          C5
Fakin' their smiles, just rankin' the file

G5                      D5
Wild cheetahs but in a cage, oh baby now

*              C5
So many people can't see the signs,

G5                              D5
even though their eyes are just fine (their eyes are just fine)

*                       C5
Hittin' the stage a day late for the show

G5
Astronomers with no telescopes


(Note: Guitar 2 plays the following fill where noted):

 *  (10) is only played 2nd time
|----------------------------------|
|----------------------------------|
|--7--9p7--------------------------|
|---------10~~----(10)--12p10-9~~--|
|----------------------------------|
|----------------------------------|


Chorus 2:
(Note: Guitar 1 plays fill, Guitar 2 plays chords)

Fill:
   d u d u d    d u d u d    u u u u u u u u u u u u
|-----------------------------------------------------|
|-----------------------------------------------------|
|--9-9-9-9------7-7-7-7------7-----7-----7-----7------|
|----------7------------5------7-----7-----7-----7----|
|--------------------------------5-----5-----5-----5--|
|-----------------------------------------------------|

   D5           C5           G5                 D5
   Oooh.....                       you are not alone

   D5           C5           G5                 D5
   Oooh.....                       you are not alone, no child!

   D5           C5           G5                 D5
   Oooh.....                       you are not alone, no child!

   D5           C5           G5
   Oooh.....                       you are not alone.....


Bridge:
                                        1st time end.  2nd time end.
|--------------------------------------|--------------|--------------|
|--------------------------------------|--------------|--------1--3--|
|--------3-----------3-----------5-----|--------4-----|-----0--------|
|-----3-----3-----3-----3-----5-----5--|-----4-----4--|--------------|
|--1-----------0-----------3-----------|--2-----------|--------------|
|--------------------------------------|--------------|--3-----------|


   Oooh......  Oooh.....   Oooh.....   Oooh......


   Oooh......  Oooh.....   Oooh.....   Oooh......


   Nothin' in the world could keep me from lying next to you

                                                          G*
   Nothin' in the world could keep me from flying next to you


(* = G is played like this):
|--x--|
|--x--|
|--0--|
|--0--|
|--2--|
|--3--|


Break:
(Note: All single downstrums. Listen for strum pattern on G5)


D5II           G                 G                         D5II
So many people die everyday, who lived every night without hope

D5II                     G                 G5
Spending their time just standin' in line, tuggin' on society's coat


Chorus 3:
(Note: Guitar 1 plays fill, Guitar 2 plays chords)

Fill:
   d u d u d    d u d u d    u u u u u u u u u u u u
|-----------------------------------------------------|
|-----------------------------------------------------|
|--9-9-9-9------7-7-7-7------7-----7-----7-----7------|
|----------7------------5------7-----7-----7-----7----|
|--------------------------------5-----5-----5-----5--|
|-----------------------------------------------------|


   D5           C5           G5                 D5
   Oooh.....                       you are not alone

   D5           C5           G5                 D5
   Oooh.....                       you are not alone, no child!

   D5           C5           G5                 D5
   Oooh.....                       you are not alone, no child!

   D5           C5           G5
   Oooh.....                       you are not alone.....

                            (i)
   D5           C5           G5                 D5

                            (ii)
   D5           C5           G5                 D5

                            (iii)
   D5           C5           G5                 D5

                            (iv)
   D5           C5           G5                 D5


   D5           C5


(Note: Guitar 2 plays the following fills where noted):

 (i)                       (ii)
|------------------|      |-------------5~~--|
|--7h8--8--7-------|      |--7h8--8--7-------|
|-------------7~~--|      |------------------|
|------------------|      |------------------|
|------------------|      |------------------|
|------------------|      |------------------|

 (iii)                     (iv)
|--------------------|    |---------------5~~--|
|--8-7----8--7-------|    |--8-7----8--7-------|
|------7--------7~~--|    |------7-------------|
|--------------------|    |--------------------|
|--------------------|    |--------------------|
|--------------------|    |--------------------|


END ON:
(Main guitar fill slows down and each
 chord is downstrummed slowly)

   G5   D5II
|-------5--|
|-------5--|
|-------7--|
|--5----7--|
|--5----5--|
|--3----5--|

END
Добавлено: 01.05.2012
Другие материалы по этой песне:
  • Аккорды и текст

Страница создана 01.05.2012
http://primanota.ru/live/you-are-not-alone-chords.htm
Привет, Гость.
Предлагаем пройти революционный курс по гитаре.
Подарок от PrimaNota.Ru, забирай!