PrimaNota.ru - самый крупный в мире бесплатный архив песенных текстов, аккордов, табулатур и нот


Live - Take My Anthem - текст песни, бас-таба, видео

Регистрация Запомнить меня
Войти через:  Facebook Google Twitter Vk Yandex Mail.ru

Live - Take My Anthem - текст песни, бас-таба, видео

Печатать
Просмотров: 137
Авторы музыки: Chad Taylor, Chad Gracey, Ed Kowalczyk, Patrick Dahlheimer

Subject: Take My Anthem BTAB (Live)

Bits and pieces of "Take My Anthem" by Live from the album Mental Jewelry

This is a great song guys, but I can't figure all of it out.  The cool-
sounding intro i have, I think.  As with all +LiVE+ songs, this baby is tuned 
down 1/2 step.

R.Allen.Canterbury
____
Tune 1/2 step below standard (Eb,Ab,Db,Gb)

intro--non slap-style

Gb:-----------2--2-------0---|----------2--2-------0-----------|
Db:--------------------------|---------------------------------|
Ab:----0---0--------0h3------|---0---0--------0h3--------------|
Eb:--------------------------|------------------------0--3-----|

"verse"


     T P T P T P    P     T T P T P T P T  P  T  T
Gb:-----2---2--------0---------2---2---2----0----------|
Db:----------------------------------------------------|
Ab:--\0---0---0-0h3--------0-0---0---0---0h3-----------|
Eb:--------------------------------------------0--3----|

"pre-chorus/bridge"

Gb:------------------------------------------------------7--5------------5---|
Db:-0--0-0---0--0-0---0--0-0---0--0-0---0--0-0--0--------------------5-7-----|
Ab:------------------------------------------------0--0--------0--0----------|
Eb:--------------------------------------------------------------------------|

____________________
"Any similarities between this transcription and the actual song is purely
coincidental."
+----------------------------------------+---------------------------------+ 
|  ____    ____                          |         acanterb@vt.edu         |
| (    '--'  .-'               _T_T_T_T_ |  ___                 __         |
| |8| O  O  |||||||||||||||||||[o o o o/ | /   \  |   | |\  /| |  | \   /  |
| (__,--.____\                 '~~~'--'  | |  ___ |   | | \/ | |--+. \ /   |
|                                        | \____| |___| |    | |___|  |    |
|    Bassist for some unnamed band       |                                 |
|                                        |                                 |
+----------------------------------------+---------------------------------+



Добавлено: 17.03.2012
Другие материалы по этой песне:
  • Аккорды и текст

Страница создана 17.03.2012
http://primanota.ru/live/take-my-anthem-chords.htm
Привет, Гость.
Предлагаем пройти революционный курс по гитаре.
Подарок от PrimaNota.Ru, забирай!