PrimaNota.ru - самый крупный в мире бесплатный архив песенных текстов, аккордов, табулатур и нот


Live - Lighting Crashes - таба, видео

Регистрация Запомнить меня
Войти через:  Facebook Google Twitter Vk Yandex Mail.ru

Live - Lighting Crashes - таба, видео

Печатать
Просмотров: 80
Уроки эстрадного вокала в Санкт-Петербурге
|-3------3-------------3---------------------3------3--------------3-----|
|-1---x--1-----1--x-x--3----x--3-----3----x--3---x--3-----x--------3---x-|
|-2---x--2-----2--x-x--5----x--5-----5--x-x--4---x--4-----x--------4---x-|
|-3---x--3-----3--x-x--5----x--5-----5--x----5---x--5-----x--------5---x-|
|-3------3-----3-------3-------3-----3--0----5------5--------x-----5-----|
|-1------1-----1-----------------------------3------3----------0---3-----|

|-3-----3------|
|-3-----3--0---|
|-4-----4--x-x-|  That's the intro
|-5-----5--x-x-|
|-5-----5--x-x-|
|-3-----3--0-0-|

  Verses
|-3------3-------------3--------------------3--------------3-------3-|
|-1---x--1-----1--x-x--3---x--3-----3----x--3-----x--------3----x--3-|
|-2---x--2-----2--x-x--5---x--5-----5--x-x--4-----x--------4----x--4-|
|-3---x--3-----3--x-x--5---x--5-----5--x----5-----x--------5----x--5-|
|-3------3-----3-------3------3-----3--0----5--------x-----5-------5-|
|-1------1-----1----------------------------3----------0---3-------3-|

|-3------|
|-3--0---|
|-4--x-x-|
|-5--x-x-|
|-5--x-x-|
|-3--0-0-|

  Choruses
|-3-----3-----3-------------3-----3-----3--------------3-------3------|
|-1-----1-----1-----x---x---3-----3-----3--------------3-------3------|
|-2-----2-----2-----x---x---5-----5-----5-----x---x----4-------4------|
|-3-----3-----3-----x---x---5-----5-----5-----x---x----5-------5------|
|-3-----3-----3-------------3-----3-----3-----x---x----5-------5----5-|
|-1-----1-----1-------------------------------0---0----3-------3----3-|

|------------3-----------|
|------------3-----x---x-|
|------------4-----x---x-|
|------------5-----x---x-|
|-5-----5----5-----------|
|-3-----3----3-----------|
Добавлено: 22.09.2013
Другие материалы по этой песне:
  • Аккорды и текст

Страница создана 16.09.2013
http://primanota.ru/live/lighting-crashes-chords.htm
Привет, Гость.
Предлагаем пройти революционный курс по гитаре.
Подарок от PrimaNota.Ru, забирай!