PrimaNota.ru - самый крупный в мире бесплатный архив песенных текстов, аккордов, табулатур и нот


Liv Moon - And Forever More - таба, видео

Регистрация Запомнить меня
Войти через:  Facebook Google Twitter Vk Yandex Mail.ru

Liv Moon - And Forever More - таба, видео

Печатать
Просмотров: 38
Уроки эстрадного вокала в Санкт-Петербурге
Tuning Drop D
Tab by: Earl del Mar

Rhythym Guitar Only. Feel free to add the solo at the comments and I will put
it in the tab and give you credit for it.

* - palm mute
~ - let it ring
/ - slide

I tabbed this song by ear, 99.99% accurate [probably]

Intro
e|--------1~--0~------------1~----------0~-|
B|------3~------3~--------3~----------3~---|
G|----2~----------2~----2~----------2~-----|
D|--0~-------------------------------------|
A|-------------------1~----------3~--------|
D|-----------------------------------------|

e|----------1~--0~-----------1~------|
B|--------3~------3~-------3~--------|
G|------2~----------2~---2~----------|
D|---0~------------------------------|
A|---------------------1~--------3~--|
D|-----------------------------------|

1st Verse
e|--------1~---------1~---------0~-|
B|------3~---------3~---------3~---|
G|----2~---------2~---------2~-----|  x2
D|--0~-----------------------------|
A|-------------1~---------3~-------|
D|---------------------------------|

e|------1~------------5~------|
B|--------1~------------5~----|
G|----2~------------6~--------|
D|----------------------------|
A|----------------------------|
D|--3~--------3/7~------------|

e|-----------1~--------1~-----------0~----|
B|--------3~--------------3~-----------3~-|
G|-----2~-----------2~------------2~------|
D|--0~------------------------------------|
A|---------------1~------------3~---------|
D|----------------------------------------|

2nd Verse
e|--------------------------------------|
B|--------------------------------------|
G|--------------------------------------|
D|--------------------------------------|
A|-1~-00-00-00-00-------00-00-00-00-----|
D|-1~-00-00-00-00-------00-00-00-00-----|
      ** ** ** **       ** ** ** **

e|-------------------------------|
B|-------------------------------|
G|-------------------------------|
D|----------------22-22-22-22----|
A|-33-33-33-33----00-00-00-00----|
D|-33-33-33-33-------------------|
   ** ** ** **    ** ** ** **

e|----------------------------|
B|----------------------------|
G|----------------------------|
D|----------------------------|
A|-1~-00-00-00-00---1~---0~---|
D|-1~-00-00-00-00---1~---0~---|
      ** ** ** **

Chorus
e|------------------------------------------------------------------|
B|------------------------------------------------------------------|
G|------------------------------------------------------------------|
D|-3~---------------------5~----------2~-3~-------------------------|
A|-1~-11-(x8)-0~----(x8)--3~-33-(x3)--0~-1~-11-(x3)--1~-0~----------|
D|------------0~-00----------------------------------1~-0~-00-(x4)--|
      **         **          **             **             **

e|-------------------------------------------|----|
B|-------------------------------------------|----|
G|-------------------------------------------|----|
D|-3~---------------------5~----------2~-3~--|----|
A|-1~-11-(x8)-0~----(x8)--3~-33-(x3)--0~-1~--|-1~-|
D|------------0--00--------------------------|-1~-|
      **         **          **

Breakdown
e|-----------------    --------------------|   ---------------------|
B|-----------------    --------------------|   ---------------------|
G|-----------------    --------------------|   ---------------------|
D|-----------------    --------------------|   ---------------------|
A|--00-00-00-00----    --00-00-00-00--1~---|   --00-00-00-00~--1~---|
D|--00-00-00-00----    --00-00-00-00--1~---|   --00-00-00-00~--1~---|
    ** ** ** **          ** ** ** **             ** ** ** *
                            first                    second

3rd Verse
e|-------------------|
B|-------------------|
G|-------------------|
D|-------------------|
A|-1~-00-00-00-00----|
D|-1~-00-00-00-00----|
      ** ** ** **

e|-------------------------------|
B|-------------------------------|
G|-------------------------------|
D|----------------22-22-22-22----|
A|-33-33-33-33----00-00-00-00----|
D|-33-33-33-33-------------------|
   ** ** ** **    ** ** ** **

e|----------------------------|
B|----------------------------|
G|----------------------------|
D|----------------------------|
A|-1~-00-00-00-00---1~---0~---|
D|-1~-00-00-00-00---1~---0~---|
      ** ** ** **

Chorus
e|------------------------------------------------------------------|
B|------------------------------------------------------------------|
G|------------------------------------------------------------------|
D|-3~---------------------5~----------2~-3~-------------------------|  x2
A|-1~-11-(x8)-0~----(x8)--3~-33-(x3)--0~-1~-11-(x3)--1~-0~----------|
D|------------0~-00----------------------------------1~-0~-00-(x4)--|
      **         **          **             **             **

e|------------------------------------------------------|
B|------------------------------------------------------|
G|------------------------------------------------------|
D|-3~---------------------5~----------2~-3~-------------|
A|-1~-11-(x8)-0~----(x8)--3~-33-(x3)--0~-1~-11-(x3)--1~-|
D|------------0~-00----------------------------------1~-|
      **         **          **             **

Breakdown
e|-----------------    --------------------|   ---------------------|
B|-----------------    --------------------|   ---------------------|
G|-----------------    --------------------|   ---------------------|
D|-----------------    --------------------|   ---------------------|
A|--00-00-00-00----    --00-00-00-00--1~---|   --00-00-00-00~--1~---|
D|--00-00-00-00----    --00-00-00-00--1~---|   --00-00-00-00~--1~---|
    ** ** ** **          ** ** ** **             ** ** ** *
                            first                    second

1st Verse
e|--------1~---------1~---------0~-|
B|------3~---------3~---------3~---|
G|----2~---------2~---------2~-----|  x2
D|--0~-----------------------------|
A|-------------1~---------3~-------|
D|---------------------------------|

e|------1~------------5~------|
B|--------1~------------5~----|
G|----2~------------6~--------|
D|----------------------------|
A|----------------------------|
D|--3~--------3/7~------------|

e|-----------1~-----|
B|--------3~--------|
G|-----2~-----------|
D|--0~-----------0~-|
A|------------------|
D|------------------|

Solo/Chorus
e|------------------------------------------------------------------|
B|------------------------------------------------------------------|
G|------------------------------------------------------------------|
D|-3~---------------------5~----------2~-3~-------------------------|  x3
A|-1~-11-(x8)-0~----(x8)--3~-33-(x3)--0~-1~-11-(x3)--1~-0~----------|
D|------------0~-00----------------------------------1~-0~-00-(x4)--|
      **         **          **             **             **
e|-------------------------------------------|----|
B|-------------------------------------------|----|
G|-------------------------------------------|----|
D|-3~---------7~----------5~----------2~-3~--|----|
A|-1~-11-(x8)-5~-55-(x8)--3~-33-(x3)--0~-1~--|-1~-|
D|-------------------------------------------|-1~-|
      **         **          **

Ending Breakdown
e|-----------------    --------------------|   --------------|
B|-----------------    --------------------|   --------------|
G|-----------------    --------------------|   --------------|
D|-----------------    --------------------|   --------------|
A|--00-00-00-00----    --00-00-00-00--1~---|   --00-00-00-00~|
D|--00-00-00-00----    --00-00-00-00--1~---|   --00-00-00-00~|
    ** ** ** **          ** ** ** **             ** ** ** *
                            first                    second

Hope this tab is helpful
Добавлено: 11.12.2015
Другие материалы по этой песне:
  • Аккорды и текст

Страница создана 11.12.2015
http://primanota.ru/liv-moon/and-forever-more-chords.htm
Привет, Гость.
Предлагаем пройти революционный курс по гитаре.
Подарок от PrimaNota.Ru, забирай!