PrimaNota.ru - самый крупный в мире бесплатный архив песенных текстов, аккордов, табулатур и нот


Little Sea - The Lucky Ones - аккорды и текст, видео

Регистрация Запомнить меня
Войти через:  Facebook Google Twitter Vk Yandex Mail.ru

Little Sea - The Lucky Ones - аккорды и текст, видео

Печатать
Просмотров: 93
Уроки эстрадного вокала в Санкт-Петербурге
The Lucky Ones
Little Sea
[intro]
D  G  D  G  D  G  D  G


[verse 1]
    D              G         D        G       D    G   D  
The streets we know won't take us where we want to go
    D     G        D     G    D    G   D
The way we walk our footsteps echo, echo


[pre-chorus]
Bm
Lights flicker as we wander
       G                 A
Let's stay a while longer


[chorus]
       D                                                  F#
We'll wait until it's dark and travel by the light of the moon
      G                     A
As we do what they fear we will
            D                                  F#
We're just kids in cars trying not to wake the sun
           G
'Cause we are
                  A
We are the lucky ones


[verse 2]
D               G       D          G       D    G    D
I watch you wipe the fog off the window with your sleeve
     D       G          D       G     D
You show me things that I have never seen
D
Place your hips between my hands
D
Let's reinvent romance


[pre-chorus]
Bm
Lights flicker as we wander
        G                 A
Let's stay a while longer


[chorus]
       D                                                  F#
We'll wait until it's dark and travel by the light of the moon
      G                     A
As we do what they fear we will
            D                                  F#
We're just kids in cars trying not to wake the sun
           G
'Cause we are
                  A
We are the lucky ones


[bridge]
Bm      Em
Find a way
A      E
To run away
       F#
From nothing

D (palm mute)                                        F# (palm mute)
Wait until it's dark and travel by the light of the moon
      G                     A
As we do what they fear we will


[solo]
e|-----------------5-5-5-5--------------------------------------------|
B|-7-7-7-7-----------------7-7-7-7------------------------------------|
G|---------7-7-7-7-----------------6-6-6-6-7-7-7-7-9-9-9-9------------|
D|---------------------------------------------------------7-7-7------|
A|--------------------------------------------------------------------|
E|--------------------------------------------------------------------|

e|-------------------------------------------4-4-4--------------------|
B|-------------------8-8-8-------------4-4-4--------------------------|
G|-------6-6-6-7-7-7-------6-6-6-7-7-7--------------------------------|
D|-9-9-9--------------------------------------------------------------|
A|--------------------------------------------------------------------|
E|--------------------------------------------------------------------|


[chorus]
           D                                                  F#
And we'll wait until it's dark and travel by the light of the moon
      G                     A
As we do what they fear we will
            D                                   F#
We're just kids in cars trying not to wake the sun
           G
'Cause we are
                  A    D D
We are the lucky ones.
Добавлено: 18.11.2015
Другие материалы по этой песне:
  • Аккорды и текст

Страница создана 18.11.2015
http://primanota.ru/little-sea/lucky-ones-chords.htm
Привет, Гость.
Предлагаем пройти революционный курс по гитаре.
Подарок от PrimaNota.Ru, забирай!