PrimaNota.ru - самый крупный в мире бесплатный архив песенных текстов, аккордов, табулатур и нот


Little Sea - Careless - таба, видео

Регистрация Запомнить меня
Войти через:  Facebook Google Twitter Vk Yandex Mail.ru

Little Sea - Careless - таба, видео

Печатать
Просмотров: 91
-------------------------------------------------------------------------------
                             CARELESS - Little Sea
-------------------------------------------------------------------------------
Tabbed by: Michelle
E-mail: shellyjb123@gmail.com
Twitter: mishhy5SOS

Hey guys^^ I tabbed this all by ear and I tried my best so I hope it's to your satisfaction :D
I tried to make it as easy to read and understand as possible so I hope you don't struggle to understand
what I've written. this is a really beautiful song and I hope you'll enjoy this as much as I did :)

feel free to message me via e-mail or twitter if you have any concerns or struggles 
happy playing~

Tuning: Standard
Key: D

Intro + Verse 1
e|----3-------3-------3-------3-------3-------3-------3-------3-----|
B|---3--3----3--3----3--3----3--3----3--3----3--3----3--3----3--3---|
G|-4-----4-4-----4-2-----2-2-----2-0-----0-0-----0-0-----0-0-----0-4| x5
D|------------------------------------------------------------------|
A|------------------------------------------------------------------|
E|------------------------------------------------------------------|
   1   2   3   4   1   2   3   4   1   2   3   4   1   2   3   4   1     


Pre-chorus:
e|----3-------3-------3-------3-------3-------3----|
B|---3--3----3--3----3--3----3--3----3--3----3--3--|
G|-----------------0-----0-2-----2-4-----4-4-----4-|
D|-2-----2-4-----4---------------------------------|
A|-------------------------------------------------|
E|-------------------------------------------------|
   1   2   3   4   1   2   3   4   1   2   3   4   1  
 (one     day     you     will    know)

Chorus:
D                     A                  Bm    
   We're strangers who came together too soon
      g                             D
These laughs that we've fallen into
             A                   Bm
The saddest part is I know it's true
    G
I'm carelessly loving you

Verse 2
e|----3-------3-------3-------3-------3-------3-------3-------3-----|
B|---3--3----3--3----3--3----3--3----3--3----3--3----3--3----3--3---| x2
G|-4-----4-4-----4-2-----2-2-----2-0-----0-0-----0-0-----0-0-----0-4| 
D|------------------------------------------------------------------|
A|------------------------------------------------------------------|
E|------------------------------------------------------------------|
   1   2   3   4   1   2   3   4   1   2   3   4   1   2   3   4   1  

(yes i'm aware he plays it differently the second time but it'll be easier for you to sing along and play 
if you keep it the same as the first time, but i've still tabbed what i think he
played)

NOTE: playing the G# on the B string the second time is optional ( B|-8-(8) )

e|---7-------7-------7-------7-------7-------7-------7-------7-----|
B|----8-8-----8-8-----8-8-----8-8-----8-8-----8-8-----8-8-----8-8--| x2
G|---------------------------------0-----0-0-----0-0-----0-0-----9-| 
D|-9-----9-9-----9-7-----7-7-----7---------------------------------|
A|-----------------------------------------------------------------|
E|-----------------------------------------------------------------|
   1   2   3   4   1   2   3   4   1   2   3   4   1   2   3   4   1 

Pre-chorus:
e|----3-------3-------3-------3-------3-------3-------3-------3-------3-------3-------3-------3----|
B|---3--3----3--3----3--3----3--3----3--3----3--3----3--3----3--3----3--3----3--3----3--3----3--3--|
G|-----------------0-----0-2-----2-0-----0-2-----2-4-----4-2-----2-2-----2-2-----2-2-----2-2-----2-|
D|-2-----2-4-----4---------------------------------------------------------------------------------|
A|-------------------------------------------------------------------------------------------------|
E|-------------------------------------------------------------------------------------------------|
   1   2   3   4   1   2   3   4   1   2   3   4   1   2   3   4   1   2   3   4   1   2   3   4   1
 (one     day     you     will    one     day     you     will    know)    

Chorus:
D                     A                   Bm    
   We're strangers who came together too soon
      g                             D
These laughs that we've fallen into
             A                   Bm
The saddest part is I know it's true
    G
I'm carelessly loving you

D                 A 
   This fire we started
                Bm
Is now just an ember
          G                       D     
And it's something I'll always remember
                         A                   Bm
Cause we're strangers who came together too soon
    G
I'm carelessly loving you

Interlude:
D A Bm G

repeat 2nd Chorus

    G                    D
I'm carelessly loving you
Добавлено: 18.11.2015
Другие материалы по этой песне:
  • Аккорды и текст

Страница создана 18.11.2015
http://primanota.ru/little-sea/careless-chords.htm
Привет, Гость.
Предлагаем пройти революционный курс по гитаре.
Подарок от PrimaNota.Ru, забирай!