PrimaNota.ru - самый крупный в мире бесплатный архив песенных текстов, аккордов, табулатур и нот


Little Red - Slow Motion - таба, бас-таба, видео

Регистрация Запомнить меня
Войти через:  Facebook Google Twitter Vk Yandex Mail.ru

Little Red - Slow Motion - таба, бас-таба, видео

Печатать
Просмотров: 151
-------------------------------------------------------------------------------
                             SLOW MOTION - Little Red
-------------------------------------------------------------------------------
Tabbed by: Sam
Email: samba679@hotmail.com

Tuning: Drop D, Capo 1st fret

This Slow Motion by Little Red accoustic version, hope you enjoy it!

Intro/Verse, This is pretty much it with some variation on the pattern that the 
high notes are played

e|-2-----0---0---2---2---0---0-----2-----0---0---2---2---0---0-----|
B|-2-----2---2---2---2---2---2-----2-----2---2---2---2---2---2-----|
G|-2-----2---2---2---2---2---2-----2-----2---2---2---2---2---2-----|
D|-----------------------------------------------------------------|
A|-----------------------------------------------------------------|
D|-0-0-0-0-0-0-0-0-0-0-0-0-0-0-0-0-0-0-0-0-0-0-0-0-0-0-0-0-0-0-0-0-|

e|-5-5-5-5-5-5-5-5-5-5-5-5---4---4---5-5-5-5-5-5-5-5-5-5-5-5---4---|
B|-5-5-5-5-5-5-5-5-5-5-5-5---5---5---5-5-5-5-5-5-5-5-5-5-5-5---5---|
G|-----------------------------------------------------------------|
D|-----------------------------------------------------------------|
A|-0-0-0-0-0-0-0-0-0-0-0-0-0-0-0-0-0-0-0-0-0-0-0-0-0-0-0-0-0-0-0-0-|
D|-----------------------------------------------------------------|

Chorus, The bass note is in brackets if you want to play it, i like to leave it out
   D               F#              A               E
   
e|-2-2-2-2-2-2-2-2-5-5-5-5-5-5-5-5-----------------4-4-4-4-4-4-4-4-|
B|-3-2-3-3-3-3-3-3-5-5-5-5-5-5-5-5-5-5-5-5-5-5-5-5-5-5-5-5-5-5-5-5-|
G|-2-2-2-2-2-2-2-2-6-6-6-6-6-6-6-6-6-6-6-6-6-6-6-6-4-4-4-4-4-4-4-4-|
D|-----------------4-4-4-4-4-4-4-4-7-7-7-7-7-7-7-7-----------------|
A|--------------------------------(0)------------------------------|
D|(0)-------------(4)-----------------------------(2)--------------|

Solo

e|-----------------------------------------------------------------|
B|-----------------------------------------------------------------|
G|-----------------------------------------------------------------|
D|-----------------------------------------------------------------|
A|-4-4-4-4-4-4-4-4-7-7-7-7-7-7-7-7-7-9-9-9-9-9-9-9-9-2-2-2---------|
D|-----------------------------------------------------------------|

e|---------------------------------------------------------------------------|
B|---------------------------------------------------------------------------|
G|---------------------------------------------------------------------------|
D|---------------------------------------------------------------------------|
A|-4-4-4-4-4-4-4-4-7---7---7---7---7-9-9-9-9-9-9-9-9-12-12-12-12-12-12-12-12-|
D|---------------------------------------------------------------------------|

Outro, Same as verse just dont play the Bass notes
e|-2-----0---0---2---2---0---0-----2-----0---0---2---2---0---0-----|
B|-2-----2---2---2---2---2---2-----2-----2---2---2---2---2---2-----|
G|-2-----2---2---2---2---2---2-----2-----2---2---2---2---2---2-----|
D|-----------------------------------------------------------------|
A|-----------------------------------------------------------------|
D|-----------------------------------------------------------------|

Thats pretty much it, Enjoy.


************************************

| /   slide up
| \   slide down
| h   hammer-on
| p   pull-off
| ~   vibrato
| +   harmonic
| x   Mute note
| b   Bend
| pb  Pre-bend
| br  Bend release
| pbr Pre-bend release
| brb Bend release bend

************************************
Добавлено: 22.02.2012
Другие материалы по этой песне:
  • Аккорды и текст

Страница создана 22.02.2012
http://primanota.ru/little-red/slow-motion-chords.htm
Привет, Гость.
Предлагаем пройти революционный курс по гитаре.
Подарок от PrimaNota.Ru, забирай!