PrimaNota.ru - самый крупный в мире бесплатный архив песенных текстов, аккордов, табулатур и нот


Little Red - I Cant Wait - таба, видео

Регистрация Запомнить меня
Войти через:  Facebook Google Twitter Vk Yandex Mail.ru

Little Red - I Cant Wait - таба, видео

Печатать
Просмотров: 116
Artist: Little Red
Song: I Can't Wait
Album: Midnight Remember
Tuning: Standard

Intro/Verse

e |-----------------0------0-------------|
B |-----------------1------1-------------|
G |-----------------0------2-------------|
D |-----------------2------3-------------|
A |-3--3---3---3----3------3-------------|      
E |-----------------x------x-------------|


Verse 1 

e |---0------0------------|
B |---1------1------------|
G |---0------2------------|
D |---2------3------------|
A |---3------3------------|     
E |---x------x------------|

Yeah, the sunlight over her skin
Here she comes
The moon high in the distance
I see a light up ahead
Is this life-love
To finally want it so bad
I never believed
It would happen but

Chorus

e |---0------0---3---------|
B |---1------1---0---------|
G |---2------0---0---------| (x3)
D |---3------2---0---------|
A |---3------3---2---------|    
E |---x------x---3---------|

Now, I can't wait to fall asleep
And to wake up in the morning
With the world so bright and new

e |---0------0------------|
B |---1------1------------|
G |---2------0------------|
D |---2------2------------|
A |---0------3------------|     
E |---x------x------------|

Outside my window leaves are falling

Interlude

e |---0------------------|
B |---1------------------|
G |---0------------------|
D |---2------------------|
A |---3------------------|      
E |---x------------------|

Verse 2

e |---0------0------------|
B |---1------1------------|
G |---0------2------------|
D |---2------3------------|
A |---3------3------------|     
E |---x------x------------|

And I know amazing colors you'll see
Falling down
These waves they wash me over
And a feeling so strong
When it finally comes on

Solo

e |---------------------|
B |-10--8--6--5--3--1---|
G |---------------------|
D |---------------------|
A |---------------------|       
E |---------------------|

e |---------------------|
B |-10-8--6--5--3--3--5-|
G |---------------------|
D |---------------------|
A |---------------------|       
E |---------------------|

e |---------------------|
B |-10--8--6--5--3--1---|
G |---------------------|
D |---------------------|
A |---------------------|       
E |---------------------|

Chorus

e |---0------0---3---------|
B |---1------1---0---------|
G |---2------0---0---------| (x3)
D |---3------2---0---------|
A |---3------3---2---------|    
E |---x------x---3---------|

Now, I can't wait to fall asleep
And to wake up in the morning
With the world so bright and new

e |---0------0------------|
B |---1------1------------|
G |---2------0------------|
D |---2------2------------|
A |---0------3------------|     
E |---x------x------------|

Outside my window leaves are falling

Outro

e |---0------0------------|
B |---1------1------------|
G |---2------0------------|
D |---3------2------------|
A |---3------3------------|     
E |---x------x------------|
Добавлено: 12.11.2013
Другие материалы по этой песне:
  • Аккорды и текст

Страница создана 12.11.2013
http://primanota.ru/little-red/i-cant-wait-chords.htm
Привет, Гость.
Предлагаем пройти революционный курс по гитаре.
Подарок от PrimaNota.Ru, забирай!