PrimaNota.ru - самый крупный в мире бесплатный архив песенных текстов, аккордов, табулатур и нот


Little People - Start Shootin - бас-таба, видео

Регистрация Запомнить меня
Войти через:  Facebook Google Twitter Vk Yandex Mail.ru

Little People - Start Shootin - бас-таба, видео

Печатать
Просмотров: 59
-------------------------------------------------------------------------------
                             Start Shootin' - Little People
-------------------------------------------------------------------------------
Tabbed by: istarii
E-mail: thompson.luke@email.com

Tuning: Standard

  0:54

G|-----------------|-----------------|-------5---------|-------5--7--7--8| 
D|-5---------------|-5---------------|-5--7------------|-7--7------------|
A|----7--5-7----5-7|----7--5-7----5-7|-----------------|-----------------|
E|-----------8-----|-----------8-----|-----------------|-----------------|

  Repeat until:

  2:30

G|-----------------|-----------------|-----------------|-----------------|
D|-----------------|-5-5-5-5-5-5-5-5-|-----------------|-7-7-7-7-7-7-7-7-|
A|-7-7-7-7-7-7-7-7-|-----------------|-3-3-3-3-3-3-3-3-|-----------------|
E|-----------------|-----------------|-----------------|-----------------|

  Repeat to the end.


| /  slide up
| \  slide down
| h  hammer-on
| p  pull-off
| ~  vibrato
| +  harmonic
| x  Mute note
===============================================================================
Добавлено: 22.06.2016
Другие материалы по этой песне:
  • Аккорды и текст

Страница создана 22.06.2016
http://primanota.ru/little-people/start-shootin-chords.htm
Привет, Гость.
Предлагаем пройти революционный курс по гитаре.
Подарок от PrimaNota.Ru, забирай!