PrimaNota.ru - самый крупный в мире бесплатный архив песенных текстов, аккордов, табулатур и нот


Little Man Tate - Why Must I Be A Teenager Up The Duff - таба, видео

Регистрация Запомнить меня
Войти через:  Facebook Google Twitter Vk Yandex Mail.ru

Little Man Tate - Why Must I Be A Teenager Up The Duff - таба, видео

Печатать
Просмотров: 103
Tabbed by:Jonesy
Email:Jonesy1303@hotmail.com

Tuning:EADGBe
    C   Dm  Em  F
e|-------------------------|
B|-5-5-6-6-8-8-10-10-------|
G|-5-5-7-7-9-9-10-10-------|
D|-5-5-7-7-9-9-10-10-------|    x4
A|-3-3-5-5-7-7-8--8--------|
E|-x-x-x-x-x-x-x--x--------|
    C     Dm     Em     F      "well it started out....."
e|------------------------------------------------------------------------|
B|-5------6------8------10------5------6------8------10-------------------|
G|-5------7------9------10------5------7------9------10-------------------|
D|-5------7------9------10------5------7------9------10-------------------|
A|-3------5------7------8-------3------5------7------8--------------------|
E|------------------------------------------------------------------------|
  let ring
"mini skirts are in today..."
   C      Dm D#m Em      F
e|------------------------------------------------------------------------|
B|-5------6-/7/--8------10------5------6------8------10-------------------|
G|-5------7-/8/--9------10------5------7------9------10-------------------|
D|-5------7-/8/--9------10------5------7------9------10-------------------|
A|-3------5-/6/--7------8-------3------5------7------8--------------------|
E|------------------------------------------------------------------------|

listen to the song to understand the slide
e|------------------------|
B|5------6------8------10-|
G|5------7------9------10-|
D|5------7------9------10-|
A|3------5------7------8--|
E|------------------------|

e|x-x-------------------------|
B|x-x-5-5-6-6-8-8-10-10-------|
G|x-x-5-5-7-7-9-9-10-10-------|
D|x-x-5-5-7-7-9-9-10-10-------|    x2
A|x-x-3-3-5-5-7-7-8--8--------|
E|x-x-x-x-x-x-x-x-x--x--------|

"well i turned around quite slowly..."
   G    F    G    F    G    F    Am        G
e|-3----1----3----1----3----1----55555555--3333333333333333----------|(Amx8)
B|-3----1----3----1----3----1----55555555--3333333333333333----------|(Gx16)
G|-4----2----4----2----4----2----55555555--4444444444444444----------|
D|-5----3----5----3----5----3----77777777--5555555555555555----------|
A|-5----3----5----3----5----3----77777777--5555555555555555----------|
E|-3----1----3----1----3----1----55555555--3333333333333333----------|
let ring
e|-------------------------------------------|
B|-------5-----------5---------5-------------|
G|-----7---7-5-7-5-7---7-5-5-7---7-5---------| x2
D|-5-5------------------7------------5-6-7---|
A|-------------------------------------------|
E|-------------------------------------------|

e|-------------------------------------------|
B|-------------------------------------------|
G|--------------------------5----------------|
D|--5-5---5-7-----5-7---5-7---77-------------| x4
A|-----------5--5----------------------------|
E|-------------------------------------------|
"well elaine she sat in the corner..."
e|-------------------------------------------|
B|-----------------------5-------------------|
G|------------5---7--------7--5--------------|
D|---5----7----------------------------------|
A|-------------------------------------------| x3
E|-------------------------------------------|
C   Dm  Em  F
e|-------------------------|
B|-5-5-6-6-8-8-10-10-------|
G|-5-5-7-7-9-9-10-10-------|
D|-5-5-7-7-9-9-10-10-------|    x4
A|-3-3-5-5-7-7-8--8--------|
E|-x-x-x-x-x-x-x--x--------|
(rythmn changes slightly,but chords are the same-listen to the song)
e|-------------------------------------------|
B|-------------------------------------------|
G|-5-5--5-7-5--5-----------------------------|
D|---------------7-7--7-5-5-7-7--------------|
A|-------------------------------------------|
E|-------------------------------------------|
  "and it might sound a little improper..."
  G    F    G    F    G    F    Am        G
e|-3----1----3----1----3----1----55555555--3333333333333333-----------------|(Amx8)
B|-3----1----3----1----3----1----55555555--3333333333333333----------|(Gx16-|
G|-4----2----4----2----4----2----55555555--4444444444444444-----------------|
D|-5----3----5----3----5----3----77777777--5555555555555555-----------------|
A|-5----3----5----3----5----3----77777777--5555555555555555-----------------|
E|-3----1----3----1----3----1----55555555--3333333333333333-----------------|

e|-------------------------------------------|
B|-------5-----------5---------5-------------|
G|-----7---7-5-7-5-7---7-5-5-7---7-5---------| x6
D|-5-5------------------7------------5-6-7---|
A|-------------------------------------------|
E|-------------------------------------------|
(guitar 1 plays x2 then guitar 2 plays x2 then guitar 1 twice again)

e|--------------------------------------------------------------------------|
B|------------5-------------------------------------------------------------|
G|-5-7-5--575---7-5-----5-5-5-7-5----------------5--------------------------|
D|------------------7--7-7-7-----7-5---5-7-5-7-57-7-5---------------7-------|
A|-----------------------------------------------------7-5-7-5-7-57---7-5---|
E|-----------------------------------------------------------------------8-5|
Добавлено: 01.04.2012
Другие материалы по этой песне:
  • Аккорды и текст

Страница создана 01.04.2012
http://primanota.ru/little-man-tate/why-must-i-be-a-teenager-up-the-duff-chords.htm
Привет, Гость.
Предлагаем пройти революционный курс по гитаре.
Подарок от PrimaNota.Ru, забирай!