PrimaNota.ru - самый крупный в мире бесплатный архив песенных текстов, аккордов, табулатур и нот


Little Man Tate - This Girl Isnt My Girlfriend - текст песни, таба, видео

Регистрация Запомнить меня
Войти через:  Facebook Google Twitter Vk Yandex Mail.ru

Little Man Tate - This Girl Isnt My Girlfriend - текст песни, таба, видео

Печатать
Просмотров: 164
was looking for this tab and there wasn't one so tried to figure out myself :)
think ive got it pretty right note wise but not entirely sure its at the right pitch but 
sounds ok when i play it :) enjoy!
standard tuning!

soz ive only got the intro at the momennt al try figure out the whole thing soon!

E|--------------------------------------------------------|
B|--------------------------------------------------------|
G|-0-0-7-7--------------------0-0-7-7---------------------|play
D|---------8-9-----8-8----------------8-9-----8-----------|this
A|-------------8-8-----8-9----------------8-8---8---------|3x
E|--------------------------------------------------------|


E|-------------------------------------------------------|
B|-------------------------------------------------------|
G|---7-9-----------play----------------------------------|
D|-9-----8-5-------this------------then:-7777777-0000000-|
A|-----------8------3 x----------------------------------|
E|-------------------------------------------------------|
Добавлено: 30.04.2012
Другие материалы по этой песне:
  • Аккорды и текст

Страница создана 06.03.2012
http://primanota.ru/little-man-tate/this-girl-isnt-my-girlfriend-chords.htm
Привет, Гость.
Предлагаем пройти революционный курс по гитаре.
Подарок от PrimaNota.Ru, забирай!