PrimaNota.ru - самый крупный в мире бесплатный архив песенных текстов, аккордов, табулатур и нот


Little Man Tate - Man I Hate Your Band - текст песни, таба, видео

Регистрация Запомнить меня
Войти через:  Facebook Google Twitter Vk Yandex Mail.ru

Little Man Tate - Man I Hate Your Band - текст песни, таба, видео

Печатать
Просмотров: 137
Little Man Tate
Man I hate your band
Tabbed by Glyn



*Intro*

g sting 6th fret bend and feedback


Csus4  C    Csus4  C    Csus4  C    Csus4  C

-3-3---3-----3-3---3-----3-3---3-----3-3---3-|
-6-6---5-----6-6---5-----6-6---5-----6-6---5-|
-5-5---5-----5-5---5-----5-5---5-----5-5---5-|
-5-5---5-----5-5---5-----5-5---5-----5-5---5-|
-3-3---3-----3-3---3-----3-3---3-----3-3---3-|
---------------------------------------------|

 Fsus4   F     Fsus4   F    Fsus4    F     Fsus4   F

-8--8----8-----8--8----8-----8--8----8-----8--8----8---|
-11-11---10----11-11---10----11-11---10----11-11---10--|
-10-10---10----10-10---10----10-10---10----10-10---10--|
-10-10---10----10-10---10----10-10---10----10-10---10--|
-8--8----8-----8--8----8-----8--8----8-----8--8----8---|
-------------------------------------------------------|

*Or you can play the C chord and the F chord with*

--------------| 
--6--6----5---|
--------------|
--------------|
--------------|
--------------|
*and* 

----------------| 
-11--11----10---|
----------------|
----------------|
----------------|
----------------|

*finishing with*

-----------------|------------------|------------------|---8------8-------| 
-11--10--11--10--|--11--10--11--10--|--11--10--11--10--|--11-----11-------|
-----------------|------------------|------------------|------------------|
-----------------|------------------|------------------|------------------|
-----------------|------------------|------------------|------------------|
-----------------|------------------|------------------|------------------|

*Intro (Part 2)*

C                 C                  F                  F  

-----------------|------------------|------------------|------------------| 
-----------------|------------------|------------------|------------------|
---/9---7----5---|--/9----7----5----|--/9----7----5----|--/9----7----5----|
-----------------|------------------|------------------|------------------|
-----------------|------------------|------------------|------------------|
-----------------|------------------|------------------|------------------|

C                 C                  F                  F

-----------------|------------------|------------------|------------------| 
-----------------|------------------|------------------|------------------|
-9-9-9-7-7-7-9-9-|-9-9-9-7-7-7-9-9--|--9----7----5---4-|------------------|
-----------------|------------------|------------------|--10--9---7---5---|
-----------------|------------------|------------------|------------------|
-----------------|------------------|------------------|------------------|
*(This ending is better than the power tab one I did)*

C
Dont talk to me about money 
F
dont talk to be about fame 
C
dont tell be about your lyrics 
F
coz your songs are all the same 
C                           F
theres 11 on the guest list probably more by far 
C                                Fsus4
photographers and magazines and stacks of A&R 


*Intro (part 2) again, slightly different ending*

C
like i said about the guest list 
F
don't forget abot the birds 
C					   F
they dont need names and tickets for the ones in denim skirts 
C
new highlights for the weekend 
F
Lipstick on their teeth 
C  N.C.
brand new tops from bottom shop 

no knickers underneath 

C  C  F  F  C  C  F  F

             Am                      Em     
but theres one thing that you'll never understand 
              Am                        G       F/F/F
oh theres one thing that you gotta understand 
                C     F
Man i hate your band 
                C     F
Man i hate your band 
                C     F
Man i hate your band 
                C     F
Man i hate your band 


*Solo over C anf F*

*Verses as others*

well were going down to london 
were gonna sign a deal 
we know a guy in camden 
who says that were unreal 
and while we are in london 
well stop and see the queen 
you known we'll all have knighthoods by the time were 23 

*Intro (Part 2) again*

well your coming home nobody 
the same as when you went 
you didnt get your deal on 
your moneys all been spent 
i could of told you long ago 
but you'd never understand 
no bollocks to be hero'd 

                       C     F    
Man i cant stand your band 

C  F  Em  Dm 

C  F  Em  Dm  

        Am                          Em
theres one thing that you'll never understand 
	Am			    G         F/F/F
oh theres one thing that you gotta understand 
Man i hate your band 
Man i hate your band 
Man i hate your band 
Man i hate your band 
		C
i've seen your band
	     F	 
i hate your band
		C 
i've seen your band
	    F       
i hate your band 

etc.

Apart from the key, I'm not sure if any of this is correct, please update
Добавлено: 24.04.2012
Другие материалы по этой песне:

Страница создана 06.04.2012
http://primanota.ru/little-man-tate/man-i-hate-your-band-chords.htm
Привет, Гость.
Предлагаем пройти революционный курс по гитаре.
Подарок от PrimaNota.Ru, забирай!