PrimaNota.ru - самый крупный в мире бесплатный архив песенных текстов, аккордов, табулатур и нот


Little Joy - The Next Time Around - аккорды и текст, видео

Регистрация Запомнить меня
Войти через:  Facebook Google Twitter Vk Yandex Mail.ru

Little Joy - The Next Time Around - аккорды и текст, видео

Печатать
Просмотров: 124
The Next Time Around
Little Joy
Little Joy - The Next time around 

Bb
Eb
Cm
F
Dm (X)

Intro: 

Guitar 1:  Bb/Eb/Bb (x2)	Cm/F/Cm (x2)	F(x4)	Bb/Eb/Bb (x2)

Guitar 2:

e|---------------------------------------------------------10--------------|
B|--66-----8-6-----66-8-10-8-6-10--88-------10-8---8-10-10----10-8---------|
G|-----7------------------------------10---------------------------10------|
D|-------8-------------------------------10---------------------------10---|
A|-------------------------------------------------------------------------|
E|-------------------------------------------------------------------------|

e|-----------------------8----8--------------------------------------------|
B|---10-8------8-8-10-11---10---1111-10-88---------------------------------|
G|-----------------------------------------1010-8-7-8-7--------------------|
D|--------10---------------------------------------------101010—8-7-8------|
A|-------------------------------------------------------------------------|
E|-------------------------------------------------------------------------|


Bb/Eb/Bb (x2)	Cm/F/Cm (x2)
One too many goals 
			F(x4)
That measure out your worth
			Bb/Eb/Bb (x2)
To seek your weight in gold

Bb/Eb/Bb (x2)	Cm/F/Cm (x2)
Sat by the ivory sill
			F(x4)
The further out you look
			Bb/Eb/Bb (x1) 
The further out you'll be



Bb			Cm
It's not enough to set the terms
			Bb	Gm
If nothing ventured, nothing earned
	Cm		F
Tough odds are set against

	Bb/F/Eb/Cm/Dm(x3)
In time, i'll belong to you
It's how it's meant to be



Bb/Eb/Bb (x2)	Cm/F/Cm (x2)
Settled on your own
			F(x4)
Sweeping dust from stones
			Bb/Eb/Bb (x2)
With a letter home


Bb/Eb/Bb (x2)	Cm/F/Cm (x2)
Back where the hour's long
			F(x4)
The simplest things invite a thrill
			Bb/Eb/Bb (x1)
If just by noticing at will



Bb			Cm
It's not enough to set the terms
			Bb	Gm
If nothing ventured, nothing earned
	Cm		F
It's how it's allways been



Eb			Bb
E onde a sorte ha de te levar
Dm		Gm
Saiba, o camino e o fim, mais que chegar


Eb		Bb  Eb
E queira o dia ser gentil
Bb	Eb		F
A tua mao aberta para quem e

	Bb/F/Eb/Cm/Dm(x3)
In time, i'll belong to you 
That's how it's meant to be
And how it's allways been


.Flashi
.Ou Yeah!
Добавлено: 25.03.2012
Другие материалы по этой песне:
  • Аккорды и текст

Страница создана 25.03.2012
http://primanota.ru/little-joy/the-next-time-around-chords.htm
Привет, Гость.
Предлагаем пройти революционный курс по гитаре.
Подарок от PrimaNota.Ru, забирай!