PrimaNota.ru - самый крупный в мире бесплатный архив песенных текстов, аккордов, табулатур и нот


Little Joy - Evaporar - таба, видео

Регистрация Запомнить меня
Войти через:  Facebook Google Twitter Vk Yandex Mail.ru

Little Joy - Evaporar - таба, видео

Печатать
Просмотров: 104
That's a beautiful from Rodrigo Amarante from when he was in Los Hermanos (you 
should hear) yet. One of my favourites
Evaporar
Composição: Rodrigo Amarante

Any comments/ sugestions, email me: luccatatoni@hotmail.com
hope you enjoy it! :)


Intro: (E7M/9 A6)

(E7M/9 A6)
Tempo a gente tem
Quanto a gente dá
Corre o que correr
Custa o que custar

(E7M/9 A6)
Tempo a gente dá
Quanto a gente tem
Custa o que correr
Corre o que custar

(E7M/9 A6)
O tempo que eu perdi
Só agora eu sei
Aprender a dar
Foi o que ganhei

(E7M/9 A6)
E ando ainda atrás
Desse tempo ter
Pude não correr
                F#m7    G#7 
Dele me encontrar        AAhh

C#m7
Não se mexer
          D7M     D9
Beija-flor no ar

(E7M/9 A6)
O rio fica lá
A água é que correu
Chega na maré
Ele vira mar

(E7M/9 A6)
Como se morrer
Fosse desaguar
Derramar no céu
           F#m7    G#7 
Se purificar       AAhh

C#m7
Deixar pra trás
    D7M      D9
Sais e minerais       
evaporar! 

Final :
e|--7------7---5-----7--4-------4--4--5--|
B|--5---5--5---5--5--5--4--4--4----4--4--|
G|--5------5---5-----5--4----4-----4--4--|
D|--5------5---5-----5--2----------2--2--|
A|---------------------------------------|
E|---------------------------------------|

e|--7------7---5-----7---11--------------|
B|--5---5--5---5--5--5---9---------------|
G|--5------5---5-----5---9---------------|
D|--5------5---5-----5---9---------------|
A|---------------------------------------|
E|---------------------------------------|

Добавлено: 16.04.2012
Другие материалы по этой песне:
  • Аккорды и текст

Страница создана 16.04.2012
http://primanota.ru/little-joy/evaporar-chords.htm
Привет, Гость.
Предлагаем пройти революционный курс по гитаре.
Подарок от PrimaNota.Ru, забирай!