PrimaNota.ru - самый крупный в мире бесплатный архив песенных текстов, аккордов, табулатур и нот


Little India - Sleep - таба, видео

Регистрация Запомнить меня
Войти через:  Facebook Google Twitter Vk Yandex Mail.ru

Little India - Sleep - таба, видео

Печатать
Просмотров: 87
                       http://www.littleindiaband.com/
-------------------------------------------------------------------------------
                             Sleep-Little India
-------------------------------------------------------------------------------
Tabbed by: C.L.Sattler
E-mail: sattlerc@hotmail.com

I know that some parts are incorrect, so any corrections would be much appreciated.

I hope you enjoy playing this song by an amazing band from the best city on earth (Vancouver)!

Tuning:Standard

************************************

| /    slide up
| \    slide down
| h    hammer-on
| p    pull-off
| ~    vibrato
| +    harmonic
| x    Mute note
| b    Bend
| pb   Pre-bend
| br   Bend release
| pbr  Pre-bend release
| brb  Bend release bend
| P.M. Palm Mute

************************************


  P.M.----------------------------------------------------------------------|
e|---------------------------------------------------------------------------|
B|-------------------------------------8-------------------------------------|
G|-------------7-----9-----------------------------------7-----9-------------|
D|-7-----9--------0-----0--7-----9--------0--7-----9--------0-----0--7-----9-|
A|----0-----0-----------------0-----0-----------0-----0-----------------0----|
E|---------------------------------------------------------------------------|

  P.M.----------------------------------------------------------------------|
e|---------------------------------------------------------------------------|
B|----8-----------------------------------------8----------------------------|
G|----------------------7-----9-----------------------------------7-----9----|
D|-------0--7-----9--------0-----0--7-----9--------0--7-----9--------0-----0-|
A|-0-----------0-----0-----------------0-----0-----------0-----0-------------|
E|---------------------------------------------------------------------------|

  P.M.-------|
e|---------------------------------------------------------------------------|
B|-------------8---15--15--12-------12------15--15--12---------------15--15--|
G|-----------------14--14--12---12------12--14--14--12---12--14--12--14--14--|
D|-7-----9-----------------12-----------------------12-----------------------|
A|----0-----0----------------------------------------------------------------|
E|---------------------------------------------------------------------------|

e|---------------------------------------------------------------------------|
B|12-------12------15--15--12---------------15--15--12-------12------15--15--|
G|12---12------12--14--14--12---12--14--12--14--14--12---12------12--14--14--|
D|12-----------------------12-----------------------12-----------------------|
A|---------------------------------------------------------------------------|
E|---------------------------------------------------------------------------|

e|-----------------------------------------------------------15--------------|
B|12---------------15--15--12-------12------15--15--12---12------12--15--15--|
G|12---12--14--12--14--14--12---12------12--14--14--12---------------14--14--|
D|12-----------------------12-----------------------12-----------------------|
A|---------------------------------------------------------------------------|
E|---------------------------------------------------------------------------|

e|---------------------------------------------------------------------------|
B|12-------12------15--15--12---------------15--15--12-------12------15--15--|
G|12---12------12--14--14--12---12--14--12--14--15--12---12------12--14--14--|
D|12-----------------------12-----------------------12-----------------------|
A|---------------------------------------------------------------------------|
E|---------------------------------------------------------------------------|

e|---------15----------------------------------------------------------------|
B|12---12------12--15--15--12-------12------15--15--12---------------15--15--|
G|12---------------14--14--12---12------12--14--14--12---12--14--12--14--14--|
D|12-----------------------12-----------------------12-----------------------|
A|---------------------------------------------------------------------------|
E|---------------------------------------------------------------------------|

                             
                     Hey       keep on walking around  
                                                  P.M.----------------------|                
e|-------------12------------------------------------------------------------|
B|12-------12--12------------------------------------------------------------|
G|12---12------12------------------------------------------------------------|
D|12-----------12-------------------------------------7--9-9--7-7---9-9--7-7-|
A|---------------------------------------------------------------------------|
E|---------------------------------------------------------------------------|

                
                When you're going nowhere feet won't touch the ground
  P.M.--------|
e|---------------------------------------------------------------------------|
B|---------------------------------------------------------------------------|
G|---------------2--0--4--0--7--0--9--0--2--0--4--0--7--0--12--0--4------2---|
D|-9-9--7-7--9---------------------------------------------------------------|
A|---------------------------------------------------------------------------|
E|---------------------------------------------------------------------------|

   
  It's you,        keep on making a sound                          When you're
  P.M.-----------------------------------------------------------| 
e|---------------------------------------------------------------------------|
B|---------------------------------------------------------------------------|
G|-9-7-------7-----9-7-------7-----9-7-------7-----9-7-------7------2--0--4--|
D|-----9-7-9--9-7------9-7-9--9-7------9-7-9--9-7------9-7-9--9-7------------|
A|---------------------------------------------------------------------------|
E|---------------------------------------------------------------------------|

 
   going nowhere feet won't touch the ground
e|---------------------------------------------------------------------------|
B|---------------------------------------------------12----------------------|
G|0--7--0--9--0--2--0--4--0--7--0--12--0--4------2------14-12----12-------12-|
D|------------------------------------------------------------14----14-12----|
A|---------------------------------------------------------------------------|
E|---------------------------------------------------------------------------|

e|---------------------------------------------------------------------------|
B|--------12-------------------------12---12------------------------------12-|
G|-----------14-12----12-------12------------14-12----12-------12------------|
D|14-12------------14----14-12----12--------------14----14-12-----14-12------|
A|---------------------------------------------------------------------------|
E|---------------------------------------------------------------------------|

e|---------------------------------------------------------------------------|
B|------------------------12---12------------------------------12------------|
G|14-12----12-------12------------14-12----12-------12------------14-12----12|
D|------14----14-12----12---------------14----14-12----14-12------------14---|
A|---------------------------------------------------------------------------|
E|---------------------------------------------------------------------------|

e|---------------------------------------------------------------------------|
B|-------------12---12-----------------------------------------12------------|
G|-------12------------14-12----12-------12--------------12-14----14-12------|
D|-14-12----12---------------14----14-12----14-12--12-14---------------------|
A|---------------------------------------------------------------------------|
E|---------------------------------------------------------------------------|

e|---------------------------------------------------------------------------|
B|15--15--12-------12------15--15--12---------------15--15--12-------12------|
G|14--14--12---12------12--14--14--12---12--14--12--14--14--12---12------12--|
D|--------12-----------------------12-----------------------12---------------|
A|---------------------------------------------------------------------------|
E|---------------------------------------------------------------------------|

e|---------------------------------------------------------------------------|
B|15--15--12---------------15--15--12-------12------15--15--12---------------|
G|14--14--12---12--14--12--14--14--12---12------12--14--14--12---12--14--12--|
D|--------12-----------------------12-----------------------12---------------|
A|---------------------------------------------------------------------------|
E|---------------------------------------------------------------------------|

e|------------------------------------------15-------------------------------|
B|15--15--12-------12------15--15--12---12------12--15--15--12-------12------|
G|14--14--12---12------12--14--14--12---------------14--14--12---12------12--|
D|--------12-----------------------12-----------------------12---------------|
A|---------------------------------------------------------------------------|
E|---------------------------------------------------------------------------|

e|-------------------------------------------------------------------15------|
B|15--15--12---------------15--15--12-------12------15--15--12---12------12--|
G|14--14--12---12--14--12--14--14--12---12------12--14--14--12---------------|
D|--------12-----------------------12-----------------------12---------------|
A|---------------------------------------------------------------------------|
E|---------------------------------------------------------------------------|

e|-----------------------------------------------------------------------12--|
B|15--15--12-------12------15--15--12---------------15--15--12-------12--12--|
G|14--14--12---12------12--14--14--12---12--14--12--14--14--12---12------12--|
D|--------12-----------------------12-----------------------12---------------|
A|---------------------------------------------------------------------------|
E|---------------------------------------------------------------------------|

 
   Hey        keep on walking around
  P.M.----------------------------------------------------------------------|
e|---------------------------------------------------------------------------|
B|---------------------------------------------------------------------------|
G|-7-7--------7-7--------7-7--------7-7--------7-7--------7-7--------7-7-----|
D|------9--7-------9--7-------9--7-------9--7-------9--7-------9--7-------9--|
A|---------------------------------------------------------------------------|
E|---------------------------------------------------------------------------|

               
               When you're going nowhere feet won't touch the ground
  P.M.--------|
e|---------------------------------------------------------------------------|
B|---------------------------------------------------------------------------|
G|---7-7--------2--0--4--0--7--0--9--0--2--0--4--0--7--0--12--0--4------2----|
D|7-------9--7---------------------------------------------------------------|
A|---------------------------------------------------------------------------|
E|---------------------------------------------------------------------------|

 
  It's you,        keep on making a sound                         When you're 
  P.M.----------------------------------------------------------|
e|---------------------------------------------------------------------------|
B|---------------------------------------------------------------------------|
G|9-7-------7-----9-7-------7-----9-7-------7-----9-7-------7------2--0--4--0|
D|----9-7-9--9-7------9-7-9--9-7------9-7-9--9-7------9-7-9--9-7-------------|
A|---------------------------------------------------------------------------|
E|---------------------------------------------------------------------------|

  
   going nowhere feet won't touch the ground
e|---------------------------------------------------------------------------|
B|--------------------------------------------------12-----------------------|
G|--7--0--9--0--2--0--4--0--7--0--12--0--4------2------14-12----12-------12--|
D|-----------------------------------------------------------14----14-12-----|
A|---------------------------------------------------------------------------|
E|---------------------------------------------------------------------------|

e|---------------------------------------------------------------------------|
B|--------12-------------------------12---12------------------------------12-|
G|-----------14-12----12-------12------------14-12----12-------12------------|
D|14-12------------14----14-12----12--------------14----14-12-----14-12------|
A|---------------------------------------------------------------------------|
E|---------------------------------------------------------------------------|

e|---------------------------------------------------------------------------|
B|------------------------12---12------------------------------12------------|
G|14-12----12-------12------------14-12----12-------12------------14-12----12|
D|------14----14-12----12---------------14----14-12----14-12------------14---|
A|---------------------------------------------------------------------------|
E|---------------------------------------------------------------------------|

e|---------------------------------------------------------------------------|
B|-------------12---12-----------------------------------------12--------15--|
G|-------12------------14-12----12-------12--------------12-14----14-12------|
D|-14-12----12---------------14----14-12----14-12--12-14---------------------|
A|---------------------------------------------------------------------------|
E|---------------------------------------------------------------------------|

e|--------15-14----12--------------------15-14----12--------------------15-14|
B|---12---------15------------15----12---------15------------15----12--------|
G|14------------------14-12------14------------------14-12------14-----------|
D|---------------------------------------------------------------------------|
A|---------------------------------------------------------------------------|
E|---------------------------------------------------------------------------|

e|----12--------------------15-14----12--------------------------------------|
B|-15------------15----12---------15--------12-------------------------------|
G|-------14-12------14------------------14-----------------------------------|
D|---------------------------------------------------------------------------|
A|---------------------------------------------------------------------------|
E|---------------------------------------------------------------------------|

Добавлено: 02.03.2016
Другие материалы по этой песне:
  • Аккорды и текст

Страница создана 02.03.2016
http://primanota.ru/little-india/sleep-chords.htm
Привет, Гость.
Предлагаем пройти революционный курс по гитаре.
Подарок от PrimaNota.Ru, забирай!