PrimaNota.ru - самый крупный в мире бесплатный архив песенных текстов, аккордов, табулатур и нот


Little Green Cars - Angel Owl - таба, видео

Регистрация Запомнить меня
Войти через:  Facebook Google Twitter Vk Yandex Mail.ru

Little Green Cars - Angel Owl - таба, видео

Печатать
Просмотров: 94
-------------------------------------------------------------------------------
                             Angel Owl - Little Green Cars
-------------------------------------------------------------------------------
Tabbed by: Alex M.

Tuning: Standard (eBGDAE)
No Capo

Chords:
GM7: 354433
Bm7: 797777
DM7/A: 557675 or x00222 (Easier to play in the riff, but involves extra hand movement)
G: 320033
D: xx0232
DM7/F#: 200222
DM7sus2: xx0220
A6: x02222
A7: x02223


--------------------------------------------------------
Riff 1 (Intro/Chorus):
    GM7
e|--------------------------|--------------------------|
B|--------------------------|--------------------------|
G|--------------------------|--------------------------|
D|--------4--------5-----0--|--------4--------5-----0--|
A|--------------------------|--------------------------|
E|--3--3-----3--3-----3-----|--3--3-----3--3-----3-----|

    Bm7                                       DM7/A
e|--------------------------|--------------------2\----|    -----5\-|
B|--------------------------|--------------------2\----|    -----7\-|
G|--------------------------|-----------7p-6-----2\----|    -----6\-|
D|--------7--------------7--|-----7/-9-----------0\----|    -----7\-|
A|-----------------9--------|-----------------0--------|    -----5\-|
E|--7--7-----7--7-----7-----|--7-----------------------| or --5-----|

Riff 2 (Verses):
    D                          DM7/F#            DM7sus2
e|--2--2--2--2--2--2--2--2--|--2--2--2--2--2--2--0--0--|
B|--3--3--3--3--3--3--3--3--|--2--2--2--2--2--2--2--2--|
G|--2--2--2--2--2--2--2--2--|--2--2--2--2--2--2--2--2--|
D|--0--0--0--0--0--0--0--0--|--0--0--0--0--0--0--0--0--|
A|--------------------------|--0--0--0--0--0--0--------|
E|--------------------------|--2--2--2--2--2--2--------|

Riff 3 (Pre-chorus):
    A6                         A7
e|--2~----------------------|--2h3~-----------------3--|
B|--2~----------------------|--2~-------------------2--|
G|--2~----------------------|--2~-------------------2--|
D|--2~----------------------|--2~-------------------2--|
A|--0~----------------------|--0~-------------------0--|
E|--------------------------|--------------------------|

--------------------------------------------------------

Intro:
------
[Riff 1] (x4)

Verse 1:
--------
G                                   [Riff 2]
On stormy nights, she waits outside (oooh oooh)
G                                     [Riff 2]
Her eyes so black, her feathers white (oooh oooh)
G                                  [Riff 2]
I kick the fire, put out the light (oooh oooh)
G                             [Riff 2]
Burning embers, cross the sky (oooh oooh)

[Riff 3]   G
Only at dawn does my angel sing

Chorus:
-------
[Riff 1]
Ahhh-ahhh-ohhh     (x2)

Verse 2:
--------
G                                       [Riff 2]
The crystal wings, they cut like blades (oooh oooh)
G                                        [Riff 2]
Knock down the strong, scaring the brave (oooh oooh)
G                              [Riff 2]
One muddy sword, one angel owl (oooh oooh)
G                                   [Riff 2]
We won that war. We're safe for now (oooh oooh)

[Riff 3]       G
But only at dawn does my angel sing

Chorus:
-------
[Riff 1]
Ahhh-ahhh-ohhh     (x2)

[Riff 3]   G
Only at dawn does my angel sing

[Riff 1]
...          (x2)
[Riff 1]
Hoo hoo hoo-ooh
[Riff 1] Break at 3rd measure.
Hoo hooh-

Outro:
------
[Riff 1]
Ahhh-ahhh-ohhh     (x4)

End on GM7


************************************

| /   slide up
| \   slide down
| h   hammer-on
| p   pull-off
| ~   vibrato
| +   harmonic
| x   Mute note
| b   Bend
| pb  Pre-bend
| br  Bend release
| pbr Pre-bend release
| brb Bend release bend

************************************
Добавлено: 30.10.2015
Другие материалы по этой песне:
  • Аккорды и текст

Страница создана 30.10.2015
http://primanota.ru/little-green-cars/angel-owl-chords.htm
Привет, Гость.
Предлагаем пройти революционный курс по гитаре.
Подарок от PrimaNota.Ru, забирай!