PrimaNota.ru - самый крупный в мире бесплатный архив песенных текстов, аккордов, табулатур и нот


Little Feat - Thats Her Shes Mine - аккорды и текст, видео

Регистрация Запомнить меня
Войти через:  Facebook Google Twitter Vk Yandex Mail.ru

Little Feat - Thats Her Shes Mine - аккорды и текст, видео

Печатать
Просмотров: 81
Thats Her Shes Mine
Little Feat
That's her, She's mine
Paul Barrer=E9=20
Little feat
Representing the Mambo - 1989

noted by Samuel Heller (klang.art@bluewin.ch)
posted by Werner De Rouck (werner.de.rouck@pandora.be)


     G
She cooled ...

                                    *(D)
Sent me ...

      G
She stole ...

                                     *(D)
Feeling like ...


C
She that ...

D
I was ...

C
She won't ...

    D
No kiss ...



Refrain:
                     slide
|--------|--------|--------|--------|
|--------|--------|---~5---|--------|
|--------|--------|---~5---|--------|
|--------|--------|---~5---|--------|
|--------|--2-----|3-------|--------|
|----3---|--------|--------|--------|
    Hey,  ...

                     slide
|--------|--------|--------|--------|
|--------|--------|---~7---|--------|
|--------|--------|---~7---|--------|
|--------|--------|---~7---|--------|
|--------|--2-----|5-------|--------|
|----3---|--------|--------|--------|
     and  ...


Look ...

        D      C        G
'Cause ...

     G         C   G          D         =20
You see ...

 G           C              D   C  G
Yeah that's ...



I been ...
Been in ...
If I had ...
I'd ...
I ain't ...
When she ...
Well, I ...
She got ...
That ...

Refrain:
Hey, that's ...
Look ...
'Cause ...
You see ...
Yeah that's ...

She's a ...
She won't ...
No kiss ...

Refrain:
Hey, that's ...
Look ...
'Cause ...
You see ...
Yeah that's ...



Groove:
(Standard-Tuning)
|----|----|----|----|
|3--3|--3-|-3--|3---|
|0--0|--0-|-0--|0---|
|----|----|----|----|
|----|----|----|----|
|3-3-|-3--|3--3|--0-|


|----|----|----|----|
|3--3|--3-|-3--|----|
|0--0|--0-|-0--|----|
|----|----|----|----|
|----|----|----|01--|
|3-3-|-3--|3--3|--01|

       slide
|----|----|----|----|
|3--3|-~7-|--7-|8-8-|
|0--0|-~7-|--7-|7-7-|
|----|-~7-|-7-7|-7--|
|----|----|----|----|
|3-3-|----|----|----|
Put you slide on the ringfinger, slide to 7th fret and put the litte=20
finger on 8th fret.

     
Добавлено: 03.08.2013
Другие материалы по этой песне:
  • Аккорды и текст

Страница создана 03.08.2013
http://primanota.ru/little-feat/thats-her-shes-mine-chords.htm
Привет, Гость.
Предлагаем пройти революционный курс по гитаре.
Подарок от PrimaNota.Ru, забирай!