PrimaNota.ru - самый крупный в мире бесплатный архив песенных текстов, аккордов, табулатур и нот


Little Feat - Rock N Roll Doctor - таба, видео

Регистрация Запомнить меня
Войти через:  Facebook Google Twitter Vk Yandex Mail.ru

Little Feat - Rock N Roll Doctor - таба, видео

Печатать
Просмотров: 93
LITTLE FEAT - ROCK N ROLL DOCTOR

- - - - - - - - - - - - - - - - - - - - - - - - - - - - - - - - - - - - - - - - - - - - -- - - - - - - - -

    E E D  E E   E E

E |----------7---7-7---------------------------------------------------------------------------------------|
B |----------9---9-9---------------------------------------------------------------------------------------|
G |----------9---9-9---------------------------------------------------------------------------------------|
D |-9-9-11-9-9---9-9---------------------------------------------------------------------------------------|
A |-7-7-7--7-7---7-7---------------------------------------------------------------------------------------|
E |--------------------------------------------------------------------------------------------------------|

- - - - - - - - - - - - - - - - - - - - - - - - - - - - - - - - - - - - - - - - - - - - -- - - - - - - - -

    E E D  E E   E E

E |----------7---7-7---------------------------------------------------------------------------------------|
B |----------9---9-9---------------------------------------------------------------------------------------|
G |----------9---9-9---------------------------------------------------------------------------------------|
D |-9-9-11-9-9---9-9---------------------------------------------------------------------------------------|
A |-7-7-7--7-7---7-7---------------------------------------------------------------------------------------|
E |--------------------------------------------------------------------------------------------------------|

- - - - - - - - - - - - - - - - - - - - - - - - - - - - - - - - - - - - - - - - - - - - -- - - - - - - - -

    D   B A E

E |---------7----------------------------------------------------------------------------------------------|
B |-3---4-2-9----------------------------------------------------------------------------------------------|
G |-2---4-2-9----------------------------------------------------------------------------------------------|
D |-4---4-2-9----------------------------------------------------------------------------------------------|
A |---------7----------------------------------------------------------------------------------------------|
E |--------------------------------------------------------------------------------------------------------|

- - - - - - - - - - - - - - - - - - - - - - - - - - - - - - - - - - - - - - - - - - - - -- - - - - - - - -

    E                                   D

E |-------------------------------------2------------------------------------------------------------------|
B |-------------------------------------3------------------------------------------------------------------|
G |-1-----------------------------------2------------------------------------------------------------------|
D |-2------------------------------------------------------------------------------------------------------|
A |-2------------------------------------------------------------------------------------------------------|
E |--------------------------------------------------------------------------------------------------------|

    There was a woman in Georgia didn't feel just right

- - - - - - - - - - - - - - - - - - - - - - - - - - - - - - - - - - - - - - - - - - - - -- - - - - - - - -

    D                        A      B  E

E |-2----------------------------------7-------------------------------------------------------------------|
B |-3------------------------2------4--9-------------------------------------------------------------------|
G |-2------------------------2------4--9-------------------------------------------------------------------|
D |--------------------------2------4--9-------------------------------------------------------------------|
A |------------------------------------7-------------------------------------------------------------------|
E |--------------------------------------------------------------------------------------------------------|

   She had fever all day and chills at night

- - - - - - - - - - - - - - - - - - - - - - - - - - - - - - - - - - - - - - - - - - - - -- - - - - - - - -

    D A   B A E

E |-----------7--------------------------------------------------------------------------------------------|
B |-3p2---4-2-9--------------------------------------------------------------------------------------------|
G |-2-2---4-2-9--------------------------------------------------------------------------------------------|
D |-4p2---4-2-9--------------------------------------------------------------------------------------------|
A |-----------7--------------------------------------------------------------------------------------------|
E |--------------------------------------------------------------------------------------------------------|

- - - - - - - - - - - - - - - - - - - - - - - - - - - - - - - - - - - - - - - - - - - - -- - - - - - - - -

    E                           D

E |-----------------------------2--------------------------------------------------------------------------|
B |-----------------------------3--------------------------------------------------------------------------|
G |-1---------------------------2--------------------------------------------------------------------------|
D |-2------------------------------------------------------------------------------------------------------|
A |-2------------------------------------------------------------------------------------------------------|
E |--------------------------------------------------------------------------------------------------------|

    Now things got worse, yes a serious bind

- - - - - - - - - - - - - - - - - - - - - - - - - - - - - - - - - - - - - - - - - - - - -- - - - - - - - -

    A                             D                                  E

E |-------------------------------2------------------------------------------------------------------------|
B |-2-----------------------------3------------------------------------------------------------------------|
G |-2-----------------------------2----------------------------------1-------------------------------------|
D |-2----------------------------------------------------------------2-------------------------------------|
A |--------------------------------------------------------2---4-----2-------------------------------------|
E |--------------------------------------------------------------------------------------------------------|

    At times like this it takes a man with such style I cannot often find

- - - - - - - - - - - - - - - - - - - - - - - - - - - - - - - - - - - - - - - - - - - - -- - - - - - - - -

    C#m             D           A  B      E

E |-4-------------------------------------7----------------------------------------------------------------|
B |-5---------------3-----------2--4------9----------------------------------------------------------------|
G |-6---------------2-----------2--4------9----------------------------------------------------------------|
D |-6---------------4-----------2--4------9----------------------------------------------------------------|
A |-4-------------------------------------7----------------------------------------------------------------|
E |--------------------------------------------------------------------------------------------------------|

    A doctor of the heart and a doctor of mind

- - - - - - - - - - - - - - - - - - - - - - - - - - - - - - - - - - - - - - - - - - - - -- - - - - - - - -

    D A   B A E

E |-----------7--------------------------------------------------------------------------------------------|
B |-3p2---4-2-9--------------------------------------------------------------------------------------------|
G |-2-2---4-2-9--------------------------------------------------------------------------------------------|
D |-4p2---4-2-9--------------------------------------------------------------------------------------------|
A |-----------7--------------------------------------------------------------------------------------------|
E |--------------------------------------------------------------------------------------------------------|

- - - - - - - - - - - - - - - - - - - - - - - - - - - - - - - - - - - - - - - - - - - - -- - - - - - - - -

    A                                                      E

E |--------------------------------------------------------------------------------------------------------|
B |-2------------------------------------------------------------------------------------------------------|
G |-2------------------------------------------------------1-----------------------------------------------|
D |-2------------------------------------------------------1-----------------------------------------------|
A |-------------------------------------------------2---4--2-----------------------------------------------|
E |--------------------------------------------------------------------------------------------------------|

    If you like country with a boogie beat he's the man to meet

- - - - - - - - - - - - - - - - - - - - - - - - - - - - - - - - - - - - - - - - - - - - -- - - - - - - - -

    A                                                   E

E |--------------------------------------------------------------------------------------------------------|
B |-2------------------------------------------------------------------------------------------------------|
G |-2---------------------------------------------------1--------------------------------------------------|
D |-2---------------------------------------------------1--------------------------------------------------|
A |--------------------------------------------2-----4--2--------------------------------------------------|
E |--------------------------------------------------------------------------------------------------------|

    If you like the sound of shufflin' feet he can't be beat

- - - - - - - - - - - - - - - - - - - - - - - - - - - - - - - - - - - - - - - - - - - - -- - - - - - - - -

    A                                 B                     B  A     E

E |------------------------------------------------------------------7-------------------------------------|
B |-2---------------------------------4---------------------4--2-----9-------------------------------------|
G |-2---------------------------------4---------------------4--2-----9-------------------------------------|
D |-2---------------------------------4---------------------4--2-----9-------------------------------------|
A |------------------------------------------------------------------7-------------------------------------|
E |--------------------------------------------------------------------------------------------------------|

    If you wanna feel real nice, just ask the Rock and Roll doctor's advice

- - - - - - - - - - - - - - - - - - - - - - - - - - - - - - - - - - - - - - - - - - - - -- - - - - - - - -

    A   B E

E |-------7------------------------------------------------------------------------------------------------|
B |-2---4-9------------------------------------------------------------------------------------------------|
G |-2---4-9------------------------------------------------------------------------------------------------|
D |-2---4-9------------------------------------------------------------------------------------------------|
A |-------7------------------------------------------------------------------------------------------------|
E |--------------------------------------------------------------------------------------------------------|

- - - - - - - - - - - - - - - - - - - - - - - - - - - - - - - - - - - - - - - - - - - - -- - - - - - - - -

    G   E E   D   A A   E

E |-7---7-7---5---5-5---7----------------------------------------------------------------------------------|
B |-8---9-9---7---5-5---9----------------------------------------------------------------------------------|
G |-7---9-9---7---6-6---9----------------------------------------------------------------------------------|
D |-9---9-9---7---7-7---9----------------------------------------------------------------------------------|
A |-7---7-7---5---7-7---7----------------------------------------------------------------------------------|
E |---------------5-5--------------------------------------------------------------------------------------|

- - - - - - - - - - - - - - - - - - - - - - - - - - - - - - - - - - - - - - - - - - - - -- - - - - - - - -

    E                            D A      E

E |--------------------------------------------------------------------------------------------------------|
B |------------------------------3p2-----------------------------------------------------------------------|
G |-1----------------------------2-2------1----------------------------------------------------------------|
D |-2----------------------------4p2------2----------------------------------------------------------------|
A |-2-------------------------------------2----------------------------------------------------------------|
E |--------------------------------------------------------------------------------------------------------|

    It's just a country town but patients come

- - - - - - - - - - - - - - - - - - - - - - - - - - - - - - - - - - - - - - - - - - - - -- - - - - - - - -

    E                          D A    E

E |--------------------------------------------------------------------------------------------------------|
B |----------------------------3p2-------------------------------------------------------------------------|
G |-1--------------------------2-2----1--------------------------------------------------------------------|
D |-2--------------------------4p2----2--------------------------------------------------------------------|
A |-2---------------------------------2--------------------------------------------------------------------|
E |--------------------------------------------------------------------------------------------------------|

    From Mobile to Moline from miles around

- - - - - - - - - - - - - - - - - - - - - - - - - - - - - - - - - - - - - - - - - - - - -- - - - - - - - -

    D A E B       E

E |---------------7----------------------------------------------------------------------------------------|
B |-3p2-5p4-------9----------------------------------------------------------------------------------------|
G |-2-2-4-4-------9----------------------------------------------------------------------------------------|
D |-4p2-6p4-------9----------------------------------------------------------------------------------------|
A |---------------7----------------------------------------------------------------------------------------|
E |--------------------------------------------------------------------------------------------------------|

    Nagodoches to New Orleans

- - - - - - - - - - - - - - - - - - - - - - - - - - - - - - - - - - - - - - - - - - - - -- - - - - - - - -

       D A        E B        E

E |--------------------------7-----------------------------------------------------------------------------|
B |----3p2--------5p4--------9-----------------------------------------------------------------------------|
G |----2-2--------4-4--------9-----------------------------------------------------------------------------|
D |----4p2--------6p4--------9-----------------------------------------------------------------------------|
A |--------------------------7-----------------------------------------------------------------------------|
E |--------------------------------------------------------------------------------------------------------|

    In beatup old cars or in limousines

- - - - - - - - - - - - - - - - - - - - - - - - - - - - - - - - - - - - - - - - - - - - -- - - - - - - - -

                D         A D                A    B   E

E |---------------------------------------------------7----------------------------------------------------|
B |-------------3---------2-3----------------2----4---9----------------------------------------------------|
G |-------------2---------2-2----------------2----4---9----------------------------------------------------|
D |-------------4---------2-4----------------2----4---9----------------------------------------------------|
A |---------------------------------------------------7----------------------------------------------------|
E |--------------------------------------------------------------------------------------------------------|

    To meet the doctor of soul, he's got his very own thing

- - - - - - - - - - - - - - - - - - - - - - - - - - - - - - - - - - - - - - - - - - - - -- - - - - - - - -

    SOLO

    A A A   A A A   C# C# C#   C# C# C#   E (4 MEASURES)

E |-----------------4--4--4----4--4--4----7----------------------------------------------------------------|
B |-2-2-2---2-2-2---6--6--6----6--6--6----9----------------------------------------------------------------|
G |-2-2-2---2-2-2---6--6--6----6--6--6----9----------------------------------------------------------------|
D |-2-2-2---2-2-2---6--6--6----6--6--6----9----------------------------------------------------------------|
A |-----------------4--4--4----4--4--4----7----------------------------------------------------------------|
E |--------------------------------------------------------------------------------------------------------|

- - - - - - - - - - - - - - - - - - - - - - - - - - - - - - - - - - - - - - - - - - - - -- - - - - - - - -

    D A   E B   E (1 MEASURE)

E |-------------7------------------------------------------------------------------------------------------|
B |-3p2---5p4---9------------------------------------------------------------------------------------------|
G |-2-2---4-4---9------------------------------------------------------------------------------------------|
D |-4p2---6p4---9------------------------------------------------------------------------------------------|
A |-------------7------------------------------------------------------------------------------------------|
E |--------------------------------------------------------------------------------------------------------|

- - - - - - - - - - - - - - - - - - - - - - - - - - - - - - - - - - - - - - - - - - - - -- - - - - - - - -

    A A A   A A A   C# C# C#   C# C# C#   E (4 MEASURES)

E |-----------------4--4--4----4--4--4----7----------------------------------------------------------------|
B |-2-2-2---2-2-2---6--6--6----6--6--6----9----------------------------------------------------------------|
G |-2-2-2---2-2-2---6--6--6----6--6--6----9----------------------------------------------------------------|
D |-2-2-2---2-2-2---6--6--6----6--6--6----9----------------------------------------------------------------|
A |-----------------4--4--4----4--4--4----7----------------------------------------------------------------|
E |--------------------------------------------------------------------------------------------------------|

- - - - - - - - - - - - - - - - - - - - - - - - - - - - - - - - - - - - - - - - - - - - -- - - - - - - - -

    D A   E B   E (1 MEASURE)

E |-------------7------------------------------------------------------------------------------------------|
B |-3p2---5p4---9------------------------------------------------------------------------------------------|
G |-2-2---4-4---9------------------------------------------------------------------------------------------|
D |-4p2---6p4---9------------------------------------------------------------------------------------------|
A |-------------7------------------------------------------------------------------------------------------|
E |--------------------------------------------------------------------------------------------------------|

- - - - - - - - - - - - - - - - - - - - - - - - - - - - - - - - - - - - - - - - - - - - -- - - - - - - - -

    A A A   A A A   C# C# C#   C# C# C#   A B E

E |-----------------4--4--4----4--4--4----5-7-7------------------------------------------------------------|
B |-2-2-2---2-2-2---6--6--6----6--6--6----5-7-9------------------------------------------------------------|
G |-2-2-2---2-2-2---6--6--6----6--6--6----6-8-9------------------------------------------------------------|
D |-2-2-2---2-2-2---6--6--6----6--6--6----7-9-9------------------------------------------------------------|
A |-----------------4--4--4----4--4--4----7-9-7------------------------------------------------------------|
E |---------------------------------------5-7--------------------------------------------------------------|

- - - - - - - - - - - - - - - - - - - - - - - - - - - - - - - - - - - - - - - - - - - - -- - - - - - - - -

    E                        E

E |-7------------------------7-----------------------------------------------------------------------------|
B |-9------------------------9-----------------------------------------------------------------------------|
G |-9------------------------9-----------------------------------------------------------------------------|
D |-9------------------------9-----------------------------------------------------------------------------|
A |-7------------------------7-----------------------------------------------------------------------------|
E |--------------------------------------------------------------------------------------------------------|

    Two degrees in be-bop, a phd in swing

- - - - - - - - - - - - - - - - - - - - - - - - - - - - - - - - - - - - - - - - - - - - -- - - - - - - - -

             E                       A                    B E A   B E

E |----------7----------------------------------------------7-------7--------------------------------------|
B |----------9-----------------------2--------------------4-9-2---4-9--------------------------------------|
G |----------9-----------------------2--------------------4-9-2---4-9--------------------------------------|
D |----------9-----------------------2--------------------4-9-2---4-9--------------------------------------|
A |----------7----------------------------------------------7-------7--------------------------------------|
E |--------------------------------------------------------------------------------------------------------|

    He's the master of rhythm he's a rock and roll king

- - - - - - - - - - - - - - - - - - - - - - - - - - - - - - - - - - - - - - - - - - - - -- - - - - - - - -

    E                                                      E

E |--------------------------------------------------------------------------------------------------------|
B |--------------------------------------------------------------------------------------------------------|
G |-1------------------------------------------------------1-----------------------------------------------|
D |-2------------------------------------------------------2-----------------------------------------------|
A |-2-----------------------------------------------2---4--2-----------------------------------------------|
E |--------------------------------------------------------------------------------------------------------|

    If you like country with a boogie beat he's the man to meet (he's the man to meet)

- - - - - - - - - - - - - - - - - - - - - - - - - - - - - - - - - - - - - - - - - - - - -- - - - - - - - -

    E                                                   E

E |--------------------------------------------------------------------------------------------------------|
B |--------------------------------------------------------------------------------------------------------|
G |-1---------------------------------------------------1--------------------------------------------------|
D |-2---------------------------------------------------2--------------------------------------------------|
A |-2------------------------------------------2-4------2--------------------------------------------------|
E |--------------------------------------------------------------------------------------------------------|

    If you like the sound of shufflin' feet he can't be beat (I say he can't be beat)

- - - - - - - - - - - - - - - - - - - - - - - - - - - - - - - - - - - - - - - - - - - - -- - - - - - - - -

    D A    E B   E                    D A E B               E                 D A    E B 
 E (2.5 MEAS)

E |--------------7------------------------------------------7------------------------------7---------------|
B |-3p2----5p4---9--------------------3p2-5p4---------------9-----------------3-2----5-4---9---------------|
G |-2-2----4-4---9--------------------2-2-4-4---------------9-----------------2-2----4-4---9---------------|
D |-4p2----6p4---9--------------------4p2-6p4---------------9-----------------4-2----6-4---9---------------|
A |--------------7------------------------------------------7------------------------------7---------------|
E |--------------------------------------------------------------------------------------------------------|

    If you wanna feel real nice, just ask the Rock and Roll doctor's advice

- - - - - - - - - - - - - - - - - - - - - - - - - - - - - - - - - - - - - - - - - - - - -- - - - - - - - -

    C#  D   A B E

E |-4---5---5-7-7------------------------------------------------------------------------------------------|
B |-6---7---5-7-9------------------------------------------------------------------------------------------|
G |-6---7---6-8-9------------------------------------------------------------------------------------------|
D |-6---7---7-9-9------------------------------------------------------------------------------------------|
A |-4---5---7-9-7------------------------------------------------------------------------------------------|
E |---------5-7--------------------------------------------------------------------------------------------|

- - - - - - - - - - - - - - - - - - - - - - - - - - - - - - - - - - - - - - - - - - - - -- - - - - - - - -
Добавлено: 03.07.2012
Другие материалы по этой песне:
  • Аккорды и текст

Страница создана 03.07.2012
http://primanota.ru/little-feat/rock-n-roll-doctor-chords.htm
Привет, Гость.
Предлагаем пройти революционный курс по гитаре.
Подарок от PrimaNota.Ru, забирай!