PrimaNota.ru - самый крупный в мире бесплатный архив песенных текстов, аккордов, табулатур и нот


Little Dragon - No Love - таба, видео

Регистрация Запомнить меня
Войти через:  Facebook Google Twitter Vk Yandex Mail.ru

Little Dragon - No Love - таба, видео

Печатать
Просмотров: 142
Not Perfect but would love some feedback.
Hard to hear all the parts

-------------------------------------------------------------------------------
                             NO LOVE - LITTLE DRAGON
-------------------------------------------------------------------------------
Tabbed by: Ignacio Mendez-Nunez
E-mail: ignacio.mendeznunez@gmail.com

Tuning: Standard

 Main Riff
   Am        |Fast|                                    Synth Part 3 time is 
e|-----8---------------------------------------------------------------------|
B|--8-----8----------10-10-10----8-----3h5--3----6--------3h5-3-5-6-8-6-5-3--|
G|--9-----9---9-7-9--9-----------7-----5---------5---------------------------| Repeat as Needed
D|-10----10---------10----------10-----5---------7---------------------------|
A|--0-----0----------0-----------0-----0---------5---------------------------|
E|---------------------------------------------------------------------------|

Break @1:14  (Synth melody is on top)
e|---------------------------------------------------------------------------|
B|--5----6--8---------5------3h5---------------------------------------------|
G|--5----5--7---5--7--5------5-----------------------------------------------|
D|--5----7--7---7--6--5------------------------------------------------------|
A|--------------7------------------------------------------------------------|
E|---------------------------------------------------------------------------|

  Bridge @2:07-2:38
e|---------------------------------------------------------------------------|
B|----7----7----7----7----7--------------------------------------------------|
G|---7----7----7----7----7---------------------------------------------------|
D|--7----7----7----7----7----------------------------------------------------|
A|---------------------------------------------------------------------------|
E|---------------------------------------------------------------------------|

************************************

| /   slide up
| \   slide down
| h   hammer-on
| p   pull-off
| ~   vibrato
| +   harmonic
| x   Mute note
| b   Bend
| pb  Pre-bend
| br  Bend release
| pbr Pre-bend release
| brb Bend release bend

************************************
Добавлено: 22.08.2015
Другие материалы по этой песне:
  • Аккорды и текст

Страница создана 22.08.2015
http://primanota.ru/little-dragon/no-love-chords.htm
Привет, Гость.
Предлагаем пройти революционный курс по гитаре.
Подарок от PrimaNota.Ru, забирай!