PrimaNota.ru - самый крупный в мире бесплатный архив песенных текстов, аккордов, табулатур и нот


Little Comets - Worry - таба, видео

Регистрация Запомнить меня
Войти через:  Facebook Google Twitter Vk Yandex Mail.ru

Little Comets - Worry - таба, видео

Печатать
Просмотров: 91
Little Comets- Worry (Acoustic Version)

Riff:
-2-2h4h2----------------------------2-2h4h2----------------------|
-------------3-2-0-------------------------------3-2-0-/5--------|
---------------------2-------------------------------------------|
------------------------4-4-4------4-----------------------------|
-----------------------------------------------------------------|
-----------------------------------------------------------------|

-2-2h4h2-----------------------------------------------------------------|
-------------3-2-0-------------------------------------------------------|
---------------------2------------------2----------------2---------------|
------------------------4-4-4------4-----4-4-4-----4----4-4-4-4----------|
-------------------------------------------------------------------------|
-------------------------------------------------------------------------|

Chords (arpeggiated):
  E1  A   F#7
-----------0-----|
--5---5----------|
--4---6---2------|
--6---7---4------|
-----------------|
-----------------|

     E1         A                    E1            F#7
Her silhouette    is bleaker than a cigarette
            E1                A
On a tuesday morn when i feel humanity slips
     E1               F#7
from broken hands down to her hips
E1      A                   E1                         F#7
Realising     lethargy in both her eyes and
        E1        A
As the sun emancipates the dawn
    E1                      F#7
her tanlines cackle with the power of the allegory.

Riff

For a man, hes deeper than the sundarbans
And the whistful way that he could hold her stare
Leaves heartache hanging in the swollen air

E1 A E1 F#7

And as they fall apart in separate beds
he carves forever in the cheap wooden bedstead

A                    F#m
Realise bitterness in both her eyes
        A
and the way his words could strip
     A
the walls shes climbing

Chrorus x3 nothing in brackets sung first round.
B          C#m     G
(Oh at the end oh no oh?)
  G
I worry about the way she lay
(Oh at the end oh no oh?)
I worry, worry, worry, worry.
(repeat)

Riff x 2

   A                              F#m
He holds her down, everything is anguish now
         C#m
With the shallowness of every breath
   C#m
He waits until she is bereft
A                       F#m
Realise, nothingness in both her eyes
         A
and the way his words have stripped
    A
the walls shes climbing

Chorus x3

Riff
Добавлено: 14.09.2013
Другие материалы по этой песне:
  • Аккорды и текст

Страница создана 14.09.2013
http://primanota.ru/little-comets/worry-chords.htm
Привет, Гость.
Предлагаем пройти революционный курс по гитаре.
Подарок от PrimaNota.Ru, забирай!