PrimaNota.ru - самый крупный в мире бесплатный архив песенных текстов, аккордов, табулатур и нот


Little Comets - Mathilda - таба, видео

Регистрация Запомнить меня
Войти через:  Facebook Google Twitter Vk Yandex Mail.ru

Little Comets - Mathilda - таба, видео

Печатать
Просмотров: 82
In my opinion the best British band out there at the moment. Really simple song, just 
have fun with it. Listen to the song for timing.

Standard Tuning.
h - hammer on
      p - pull off
      b - bend string up
      r - release bend
      / - slide up
      \ - slide down
      v - vibrato (sometimes written as ~)
      t - tap (with strumming hand)
      x - mute string

Intro/Verse

'Oh decry, with these two fingers I can show you why'

      Bm    A    Bm     F#m
E|----7-----5-----7------2--------------|
B|----7-----5-----7------2--------------|
G|----7-----6-----7------2--------------|
D|----9-----7-----9------4--------------|
A|----9-----7-----9------4--------------|
E|----7-----5-----7------2--------------|


The chords for the chorus are exactly the same, but for the F#m chord play:

E|----9-----|
B|----10----|
G|----11----|
D|----11----|
A|----9-----|
E|----9-----|


'Ayyy'
       A      F#m
E|-----5-------9-----|
B|-----5-------10----|
G|-----6-------11----|
D|-----7-------11----|
A|-----7-------9-----|
E|-----5-------9-----|

Outro

      F#m      E      C#m     Bm      A
E|-----9-------7------9-------7-------5----|
B|-----10------9------9-------7-------5----|
G|-----11------9------9-------7-------6----|   (x2)
D|-----11------9------11------9-------7----|
A|-----9-------7------11------9-------7----|
E|-----9-------7------9-------7-------5----|


Tabbed by Stan Evans
Добавлено: 01.09.2013
Другие материалы по этой песне:
  • Аккорды и текст

Страница создана 01.09.2013
http://primanota.ru/little-comets/mathilda-chords.htm
Привет, Гость.
Предлагаем пройти революционный курс по гитаре.
Подарок от PrimaNota.Ru, забирай!