PrimaNota.ru - самый крупный в мире бесплатный архив песенных текстов, аккордов, табулатур и нот


Little Big - Life In Da Trash - таба, видео

Регистрация Запомнить меня
Войти через:  Facebook Google Twitter Vk Yandex Mail.ru

Little Big - Life In Da Trash - таба, видео

Печатать
Просмотров: 799
-------------------------------------------------------------------------------
                             LIFE IN DA TRASH - Little Big
-------------------------------------------------------------------------------
Tabbed by: Malcom 
E-mail:

Tuning:

D|---------------------------------------------------------------------------|
A|---------------------------------------------------------------------------|
F|---------------------------------------------------------------------------|
C|---------------------------------------------------------------------------|
G|-4/5---7---------3---------------------------------------------------------|
C|-----------9-9-------------------------------------------------------------|


D|---------------------------------------------------------------------------|
A|---------------------------------------------------------------------------|
F|---------------------------------------------------------------------------|
C|-----9---------------------------------------------------------------------|
G|-0---7--7--7--9---9-9-9--9-7---3-------------------------------------------|
C|-0------7--7--9---9-9-9--9-7---3-------------------------------------------|




************************************

| /   slide up
| \   slide down
| h   hammer-on
| p   pull-off
| ~   vibrato
| +   harmonic
| x   Mute note
| b   Bend
| pb  Pre-bend
| br  Bend release
| pbr Pre-bend release
| brb Bend release bend

************************************
Добавлено: 24.06.2015
Другие материалы по этой песне:
  • Аккорды и текст

Страница создана 24.06.2015
http://primanota.ru/little-big/life-in-da-trash-chords.htm
Привет, Гость.
Предлагаем пройти революционный курс по гитаре.
Подарок от PrimaNota.Ru, забирай!