PrimaNota.ru - самый крупный в мире бесплатный архив песенных текстов, аккордов, табулатур и нот


Little Bastard - Little Bastard - таба, видео

Регистрация Запомнить меня
Войти через:  Facebook Google Twitter Vk Yandex Mail.ru

Little Bastard - Little Bastard - таба, видео

Печатать
Просмотров: 110
Уроки эстрадного вокала в Санкт-Петербурге
-----------------------------------------------------------------------------
                                       LITTLE BASTARD - Little Bastard
-----------------------------------------------------------------------------
Tabbed by: Jose Antonio Nuñez
Mail: jose_iram9@hotmail.com

Hello.

It's just guitar, the Pre-Intro is with bass.

INTRO:
e|--------------------|----------------------|(x2)
B|--------------------|----------------------|
G|--------------------|----------------------|
D|--------------------|----------------------|
A|-9--9-9--9-9--5-7---|-9--9-9--9-9--5-7-5---|
E|-7--7-7--7-7--3-5---|-7--7-7--7-7--3-5-3---|

RIFF 1
e|------------------|
B|------------------|
G|------------------|
D|------------------|
A|-----1-----0--x---|
E|-3-3---2-2----x---|

VERSE:
e|--------------------|--------------------|---------------|
B|--------------------|--------------------|---------------|
G|--------------------|--------------------|---------------|
D|-9-9-9--7-7--5--7---|-7-7-7--5-5--3--5---|---------------|
A|-9-9-9--7-7--5--7---|-7-7-7--5-5--3--5---|---------------|
E|-7-7-7--5-5--3--5---|-7-7-7--5-5--3--5---|-6-5-4-3-2-1---|

e|--------------------|--------------------|
B|--------------------|--------------------|
G|--------------------|--------------------|
D|-9-9-9--7-7--5--7---|-7-7-7--5-5--3--5---|
A|-9-9-9--7-7--5--7---|-7-7-7--5-5--3--5---|
E|-7-7-7--5-5--3--5---|-7-7-7--5-5--3--5---|

RIFF 2
e|----------------|-----------------|
B|----------------|-----------------|
G|------------4---|-------3--5--7---|
D|-----4----3-----|-------3--5--7---|
A|---3----2-------|-----------------|
E|-2--------------|-12/1------------|

------------
BASS SOLO: Look for it on the bass tab. 
------------

PRE-GUITAR SOLO (During the bass solo)
e|-(0)-x--x-x--x-x--x-(0)--|
B|-(0)-x--x-x--x-x--x-(0)--|
G|-(0)-x--x-x--x-x--x-(0)--|
D|-(0)-x--x-x--x-x--x-(0)--|
A|-(0)-x--x-x--x-x--x-(0)--|
E|-(0)-x--x-x--x-x--x-(0)--|

GUITAR SOLO:
e|----------------------------------------------------------|
B|-3/9--9h10-9h11-9-10-11-9h10-11-10h11-9-10-11-9h10-9h11---|
G|----------------------------------------------------------|
D|----------------------------------------------------------|
A|----------------------------------------------------------|
E|----------------------------------------------------------|

e|-9-9h10-11-9h10-9h11-9-9h10-9h10-9h10--9~~9~~9~(9~)-----------------|
B|--------------------------------------------------------------------|
G|--------------------------------------------------------------------|
D|--------------------------------------------------------------------|
A|--------------------------------------------------------------------|
E|--------------------------------------------------------------------|

e|-9-9h10-10-9h10-12-9h10-9h11-9-9h10-9h9-9h10-(9\7)-9-9h12-9h10-9h12-9\5~~~|
B|--------------------------------------------------------------------------|
G|--------------------------------------------------------------------------|
D|--------------------------------------------------------------------------|
A|--------------------------------------------------------------------------|
E|--------------------------------------------------------------------------|
-END SOLO-

OUTRO:
e|-(0)----------------|
B|-(0)----------------|
G|-(0)-----------0x---|
D|-(0)--5--7--9--0x---|
A|-(0)--5--7--9--0x---|
E|-(0)--3--5--7-------|


************************************

| /   slide up
| \   slide down
| h   hammer-on
| p   pull-off
| ~   vibrato
| +   harmonic
| x   Mute note
| b   Bend
| pb  Pre-bend
| br  Bend release
| pbr Pre-bend release
| brb Bend release bend

************************************
Добавлено: 30.09.2013
Другие материалы по этой песне:
  • Аккорды и текст

Страница создана 30.09.2013
http://primanota.ru/little-bastard/little-bastard-chords.htm
Привет, Гость.
Предлагаем пройти революционный курс по гитаре.
Подарок от PrimaNota.Ru, забирай!