PrimaNota.ru - самый крупный в мире бесплатный архив песенных текстов, аккордов, табулатур и нот


Little Barrie - Better Call Saul - таба, видео

Регистрация Запомнить меня
Войти через:  Facebook Google Twitter Vk Yandex Mail.ru

Little Barrie - Better Call Saul - таба, видео

Печатать
Просмотров: 150
-------------------------------------------------------------------------------
                 Better Call Saul Intro - Little Barrie
-------------------------------------------------------------------------------
Tabbed by: Jim Chen

Tuning: Standard

e|---5--------9--------8----------12----------------5---------9--------------|
B|---5---------9-------8------15--13--15--13--------5----------8-------------|
G|---6----/9----9------9----------14----------------6-----/9----9------------|
D|---7-----------------10---------------------------7------------------------|
A|---------------------------------------------------------------------------|
E|---------------------------------------------------------------------------|

e|---------------------------------------------5-----------------------------|
B|---------------------------------------------5-----------------------------|
G|-------------9-8-7--5----------5-7-----------6-----------------------------|
D|---------------------------------------------7-----------------------------|
A|------------------------5-/7--------0-3------------------------------------|
E|--0---0-0------------------------------------------------------------------|


************************************

| /   slide up
| \   slide down
| h   hammer-on
| p   pull-off
| ~   vibrato
| +   harmonic
| x   Mute note
| b   Bend
| pb  Pre-bend
| br  Bend release
| pbr Pre-bend release
| brb Bend release bend

************************************
Добавлено: 03.11.2015
Другие материалы по этой песне:

Страница создана 03.11.2015
http://primanota.ru/little-barrie/better-call-saul-chords.htm
Привет, Гость.
Предлагаем пройти революционный курс по гитаре.
Подарок от PrimaNota.Ru, забирай!