PrimaNota.ru - самый крупный в мире бесплатный архив песенных текстов, аккордов, табулатур и нот


Litfiba - Suona Fratello - аккорды и текст, таба, видео

Регистрация Запомнить меня
Войти через:  Facebook Google Twitter Vk Yandex Mail.ru

Litfiba - Suona Fratello - аккорды и текст, таба, видео

Печатать
Просмотров: 127
Suona Fratello
Litfiba
		   ********************************************************************
* LITFIBA –   SUONA fRATELLO   –   (From the album SPIRITO)        *
********************************************************************

Transcribed By: Alessio Carta
Day tabbed: 21.08.2002
email: carta.ales@tiscalinet.it

Please mail me if you can find mistakes!

-----------------------------------------

Intro:
e-||----2-2---0-0---2-2---2-2---2-2---0-0---2-2------------------------------------------
B-||----3-3---2-2---2-2---3-3---3-3---2-2---2-2---------7----------------5---7-----------
G-||----4-4---2-2---3-3—--4-4---4-4---2-2---3-3—------7---7-9-6--------6---6---7-------7-
D-||----------------------------------------------9-9------------7-7-7-----------9-9-9---
A-||--2-----0-----------2-----2-----0-----------2----------------------------------------
E-||--------------2-----------------------2----------------------------------------------


e----------------------------------------------------------------------------------
B-7--------------------------7----------------5---7-----------7--------------------
G---7-9-6---9-7-6----------7---7-9-6--------6---6---7-------7---7-9-6---9-7-6------
D---------7-------7-9--9-9------------7-7-7-----------9-9-9-----------7-------7-9--
A----------------------------------------------------------------------------------
E----------------------------------------------------------------------------------




Verso

Nota: accordi arpeggiati come nell'intro

Bm        A      F#	Bm
Suona fratello la luna piena
            A        F#	  Bm	A F#	Bm A F# Bm A F# Bm A F# Bm
Perché la notte è una candela
           A    F#	        Bm
Guarda sorella la luna piena
            A        F#	  Bm
Perché l'amore è un'altalena
          A     F#	      Bm
Canta sorella la luna piena
            A        F#	Bm
Perché la vita è una catena


e----------------------------------------------------------------------------------------
B-------7-10-9-7h9-7-\5-7-5h7-5-\3-5-5-3-\2-0-------7-10-9-7h9-7-\5-7-5h7-5-\3-5-5-3-\2-0
G---7-9-----------------------------------------7-9--------------------------------------
D-9-------------------------------------------9------------------------------------------A----------------------------------------------------------------------------------------
E----------------------------------------------------------------------------------------


e----------------------------------------------------------------------------------------
B-------7-10-9-5-7-5h7-5-\3-5-5-3-\2-0-------7----------------5---7-----------7----------
G---7-9------------------------------------7---7-9-6--------6---6---7-------7---7-9-6---9
D-9------------------------------------9-9------------7-7-7-----------9-9-9-----------7--A----------------------------------------------------------------------------------------
E----------------------------------------------------------------------------------------





e-------------------------------------------------------------------7--
B----------------7----------------5---7-----------7-----------------7--
G-7-6----------7---7-9-6--------6---6---7-------7---7-9-6---9-7-6---7--
D-----7-9--9-9------------7-7-7-----------9-9-9-----------7-------7-9--
A-------------------------------------------------------------------9--
E-------------------------------------------------------------------7--     
Добавлено: 07.08.2013
Другие материалы по этой песне:
  • Аккорды и текст

Страница создана 16.04.2012
http://primanota.ru/litfiba/suona-fratello-chords.htm
Привет, Гость.
Предлагаем пройти революционный курс по гитаре.
Подарок от PrimaNota.Ru, забирай!