PrimaNota.ru - самый крупный в мире бесплатный архив песенных текстов, аккордов, табулатур и нот


Litfiba - Apri Le Tue Porte - таба, видео

Регистрация Запомнить меня
Войти через:  Facebook Google Twitter Vk Yandex Mail.ru

Litfiba - Apri Le Tue Porte - таба, видео

Печатать
Просмотров: 73
		   Organization: GP&A Communications
Lines: 154
Message-ID:  741hon$cpg$5@ftp.gpa.it>
NNTP-Posting-Host: ppp041.usr.gpa.it
X-Newsreader: Microsoft Outlook Express 4.72.3110.5
X-MimeOLE: Produced By Microsoft MimeOLE V4.72.3110.3
Xref: news.tin.it it.arti.musica.spartiti:4005339
X-Mozilla-Status: 8000

#----------------------------------PLEASE
NOTE---------------------------------#
#This file is the author's own work and represents their interpretation of
the #
#song. You may only use this file for private study, scholarship, or
research. #
#---------------------------------------------------------------------------
---##
#

Titolo:APRI LE TUE PORTE
Autore:LITFIBA

#by w0lf

     Am      C
E||-------------------------------|-------------------------------|
B||-------------------------------|-------------------------------|
G||-------------------------------|-------------------------------|
D||----2-2-2-2-------2-2-2-2------|----2-2-2-2--5-5--5-5-5-5------|
A||--5-0-0-0-0--5-5--0-0-0-0--5-5-|--5-0-0-0-0--3-3--3-3-3-3--5-5-|
E||--3----------3-3-----------3-3-|--3------------------------3-3-|


  Am      G
|------------------------------|-------------------------------|
|------------------------------|-------------------------------|
|------------------------------|-------------------------------|
|----2-2-2---------2-2-2-------|----2-2-2-2--------------------|
|--5-0-0-0-5--5-5--0-0-0---5-5-|--5-0-0-0-0--5-5--5-5-5-5--5-5-|
|--3-------3--3-3----------3-3-|--3----------3-3--3-3-3-3--3-3-|


   Am       C
|-------------------------------|--------------------------|----------------
--||
|-------------------------------|--------------------------|----------------
--||
|-------------------------------|--------------------------|----------------
--||
|----2-2-2-2-------2-2-2-2------|----2-2-2-2--5-5-5--------|-5--------------
--||
|--5-0-0-0-0--5-5--0-0-0-0--5-5-|--5-0-0-0-0--3-3-3--------|-3--------------
--||
|--3----------3-3-----------3-3-|--3-----------------------|----------------
--||


Am
Tu sei un amico coi tuoi fantasmi

e vivi in fuga dietro a strani orgasmi

ci si nasconde ci si stupisce
     C Am
ma i punti deboli chi li capisce perchè
  G

    Am       C
E||-------------------------------|-------------------------------|
B||-------------------------------|-------------------------------|
G||-------------------------------|-------------------------------|
D||----2-2-2-2-------2-2-2-2------|----2-2-2-2--5-5--5-5-5-5------|
A||--5-0-0-0-0--5-5--0-0-0-0--5-5-|--5-0-0-0-0--3-3--3-3-3-3--5-5-|
E||--3----------3-3-----------3-3-|--3------------------------3-3-|


  Am      G
|------------------------------|-------------------------------|
|------------------------------|-------------------------------|

|------------------------------|-------------------------------|
|----2-2-2---------2-2-2-------|----2-2-2-2--------------------|
|--5-0-0-0-5--5-5--0-0-0---5-5-|--5-0-0-0-0--5-5--5-5-5-5--5-5-|
|--3-------3--3-3----------3-3-|--3----------3-3--3-3-3-3--3-3-|
     tu dimmi per - chè


Am
Fratello amico non lo capisci

se non ci uniamo qui ci fanno a pezzi

noi siamo il mare che prende fuoco

fratello mio facciamo un gioco.
      C
E||------------------------------|------------------------||
B||------------------------------|--5----5-----8-8--------||
G||------------------------------|---------7-5------------||
D||----2-2-2-2-------------------|------------------------||
A||--5-0-0-0-0--5-5-5-5-5-5-5----|------------------------||
E||--3----------3-3-3-3-3-3-3----|------------------------||


Am       C Am   G
Vivi forte apri le tue porte
Am      C    Am       G
vivi in fondo e forte spalanca le tue porte
Am                C Am   G
combatti fratello ogni realtà distorta
Am   C  Am       G
e vivi bene tutto e forte apri le tue porte su tutto

   Am
E||-------------------------||
B||-------------------------||
G||-------------------------||
D||-------------------------||
A||-------0----0------0--1--||
E||----0-----0-----3--------||



Noi siamo amici ma parliamo poco
parole a pezzi e serate a vuoto
tu mi dai voglia di cambiare e giocare ancora
con tutto con tutto con tutto
con tutto con tutto con tutto

   Am
E||-----------------------|--------------------------------|
B||-----------------------|--------------------------------|
G||-----------------------|--------------------------------|
D||-----------------------|----2-2-2-2--------2-2-2-2------|
A||------0---0------0--1--|--5-0-0-0-0--5-5-5-0-0-0-0--5-5-|
E||--------------3--------|--3----------3-3-3----------3-3-|


                          C
|--------------------------------||
|--------------------------------||
|--------------------------------||
|----2-2-2-2--5-5-5-5-5-5-5------||
|--5-0-0-0-0--3-3-3-3-3-3-3--5-5-||
|--3-------------------------3-3-||



noi siamo il mondo che prende fuoco
fratello mio facciamo un gioco

Vivi forte apri le tue porte
vivi in fondo e forte spalanca le tue porte
combatti fratello ogni realtà distorta
e vivi bene tutto e forte spalanca le tue porte
apri le apri le apri le tue porte
apri le apri le apri le tue porte
facciamo un gioco apriti apriti
facciamo un gioco apriti apriti

#per suggerimenti e/o correzioni w0lfx@usa.net (occhio che non è una o è uno
zero)


     
Добавлено: 20.10.2013
Другие материалы по этой песне:
  • Аккорды и текст

Страница создана 20.10.2013
http://primanota.ru/litfiba/apri-le-tue-porte-chords.htm
Привет, Гость.
Предлагаем пройти революционный курс по гитаре.
Подарок от PrimaNota.Ru, забирай!