PrimaNota.ru - самый крупный в мире бесплатный архив песенных текстов, аккордов, табулатур и нот


Literature - Cincinnati - аккорды и текст, видео

Регистрация Запомнить меня
Войти через:  Facebook Google Twitter Vk Yandex Mail.ru

Literature - Cincinnati - аккорды и текст, видео

Печатать
Просмотров: 111
Уроки эстрадного вокала в Санкт-Петербурге
Cincinnati
Literature
CINCINNATI
by literature
from their album 'anthology'

tabbed by drew (iamdrew@gmail.com)

turn the jangle up for this one, kids.  super fun and easy to play.


CHORDS

     E A D G B e
     -----------
D    x x 0 2 3 2 
Bm   x 2 4 4 3 2
G    3 5 5 4 3 3
F#   2 4 4 3 2 2

(p.m.) means palm mute.

INTRO

e-|-----------------5-5-----------------7-5-----------------5-5---------------------|-
B-|--7-7--5-5--7-7-------7-7--5-5--7-7-------7-7--5-5--7-7-------7-7--5-5--7-5-7-5--|-
G-|---------------------------------------------------------------------------------|-
D-|---------------------------------------------------------------------------------|-
A-|---------------------------------------------------------------------------------|-
E-|---------------------------------------------------------------------------------|-


VERSE

D                   Bm        G
i've been losing so long it escapes me 
D                 Bm            G
always tripping myself from hesitation
D                    Bm     G          F#        G
i was looking at someone to get what i need~
D                   Bm         G
all the love that i gave i was faking
D                      Bm                G
too many times we were lost and we could take it
D                   Bm         G        F#
we were looking for someone to save our souls~


CHORUS
                    G (p.m)                   
say you wrote a bad cheque to me
                        Bm (p.m)
i'd try to cash if they charge me a fee
                   D         Bm    G        D                
i bet this'd never happen to me in cincinnati


VERSE

D             Bm                G 
if it happens again people will hate me 
D                  Bm           G      
being so stuck for cash i can't get a break
D                Bm       G           F#    
too many times i find i'm in the same hole~


CHORUS
                    G (p.m)                   
say you wrote a bad cheque to me
                        Bm (p.m)
i'd try to cash if they charge me a fee
                   D         Bm    G        D                
i bet this'd never happen to me in cincinnati


SOLO
    Em            A           D        Bm
e-|------------------------------------------|-
B-|------------------------------------------|-
G-|------------------------------------------|-
D-|------------------------------------------|-
A-|--7------------------------7--------------|-
E-|----10-9-10-9--10-9--10-9----10-9-10-9~---|-a

e-|------------------------------------------|-
B-|------------------------------------------|-
G-|------------------------------------------|-
D-|------------------------------------------|-
A-|--7------------------------7--------------|-
E-|----10-9-10-9--10-9--10-9----10-9-10-7~---|-

e-|------------------------------------------|-
B-|------------------------------------------|-
G-|------------------------------------------|-
D-|------------------------------------------|-
A-|--7-7-7-7---------------------------------|-
E-|-----------10-10-10-10--9-9-9-9--7-7-7-7--|-



VERSE
D                   Bm          G
you were taking the drugs i was saving
D                   Bm            G
now you leave it to me i'm not complaining 
D                    Bm     G       F#
i am looking for someone to take me home~


CHORUS
                    G (p.m)                   
say you wrote a bad cheque to me
                        Bm (p.m)
i'd try to cash if they charge me a fee
                   D         Bm    G        D                
i bet this'd never happen to me in cincinnati



(note to approvers:  here's a link to prove this is a real song)  
https://www.youtube.com/watch?v=AA3Qp3ow1cM
Добавлено: 09.08.2015
Другие материалы по этой песне:
  • Аккорды и текст

Страница создана 09.08.2015
http://primanota.ru/literature/cincinnati-chords.htm
Привет, Гость.
Предлагаем пройти революционный курс по гитаре.
Подарок от PrimaNota.Ru, забирай!