PrimaNota.ru - самый крупный в мире бесплатный архив песенных текстов, аккордов, табулатур и нот


Lite - Recollection - таба, видео

Регистрация Запомнить меня
Войти через:  Facebook Google Twitter Vk Yandex Mail.ru

Lite - Recollection - таба, видео

Печатать
Просмотров: 84
Pretty simple song, it's been a challenge (still is) trying to figure this out by ear. 
Feel free to add
parts as you may see fit. I'll be adding to this in the future, I just wanted to get the
ball rolling for anyone else that wishes to help finish this tab. Please remember to rate,
comment, or correct please.

0:00

Riff A (Guitar 1):                                                   2nd time play this instead

Eb|--------------------------------------------------------0--------|-----------|
Bb|--------------------------------------------4--------------4-----|--------5--|
Gb|-----------1--2-----------4--2--1--------------------2--------4--|-----2-----|
Db|--------4--------------------------------2-----------------------|-----------|
Ab|-----------------------2--------------4-----------4--------------|--4--------|
Eb|--0--2--------------4--------------------------------------------|-----------|

Riff A (Guitar 2):

Eb|--------------------------------------------4-----------4--------|
Bb|-----------5--------------4--7-----------------------------5-----|
Gb|--------2-----2--------4--------6--------6-----------6--------6--|
Db|-----4--------------6-----------------6-----------6--------------|
Ab|-----------------------------------------------------------------|
Eb|--0--------------------------------------------------------------|

0:50

Guitar 1

Eb|-----11-----9----------12--11--------11-----9----------------|
Bb|--9------9-----12--10-------------9------9-----9--12--10--9--|
Gb|-------------------------------------------------------------|
Db|-------------------------------------------------------------|
Ab|-------------------------------------------------------------|
Eb|-------------------------------------------------------------|

Guitar 2 (I don't have the part figured out, here's just a little bar chord to fill)

Eb|-----
Bb|--5--
Gb|-----
Db|--6--
Ab|--4--
Eb|-----

0:58

Eb|--4--5--4--|
Bb|-----------|
Gb|-----4--4--|
Db|--2-----2--|
Ab|-----------|
Eb|-----------|

1:15

Eb|--------------------------------------------4-----------4--------|
Bb|-----------5-----------------------------2-----------2-----5-----|
Gb|--------2-----2-----------------------------------------------6--|
Db|-----4-----------------------2-----------------------------------|
Ab|-----------------------2--4-----------4-----------4--------------|
Eb|--0-----------------4-----------4--------------------------------|

1:50
(repeat Riff A and Riff B)

2:41

guitar 1

Eb|--------------------5--------------------4h5p4--|
Bb|-----5-----------7-----------------5------------|
Gb|--4-----6--7-----------------6--------6---------|
Db|--------------7-----------6-----6---------------|
Ab|------------------------------------------------|
Eb|------------------------------------------------|

guitar 2

Eb|-----------------------------------------------|
Bb|-----------------------------------------------|
Gb|--------------------6--------------2-----------|
Db|--------4-----4--7--------------4-----4--------|
Ab|-----5-----5-----------------4-----------4-----|
Eb|--7-----------------------2-----------------0--|

3:13
(repeat Riff A and Riff B
Добавлено: 31.05.2016
Другие материалы по этой песне:
  • Аккорды и текст

Страница создана 31.05.2016
http://primanota.ru/lite/recollection-chords.htm
Привет, Гость.
Предлагаем пройти революционный курс по гитаре.
Подарок от PrimaNota.Ru, забирай!