PrimaNota.ru - самый крупный в мире бесплатный архив песенных текстов, аккордов, табулатур и нот


Lite - Ef - таба, видео

Регистрация Запомнить меня
Войти через:  Facebook Google Twitter Vk Yandex Mail.ru

Lite - Ef - таба, видео

Печатать
Просмотров: 71
Tabbed this out based on the cover on youtube as I needed a jumping off point. 
Consequentially, It's laregely just the first guitar with the exception of one simple riff 
I was able to tab out by ear on the second.


intro riff

e|---------------------------------|---------------------------------|
B|---------------------------------|---------------------------------|
G|---------------------------------|---------------------------------|
D|---------------------------------|---------------------------------|
A|----0-0-0-14---0-0-0-14h15/17----|----0-0-0-14---0-0-0-14h15\12----|
E|---------------------------------|---------------------------------|


riff at 0:34

e|---------------------------------|
B|---------------------------------|
G|---------------------------------|
D|---------------------------------|
A|----14-17---12-14---9-11-10------|
E|--0-------0-------0---------10---|

1:03

e|---------------------------------|--0------------------------------|
B|---------------------------------|--0------------------------------|
G|---------------------------------|--10b----------------------------|
D|-0-------------------------------|--9b-----------------------------|
A|-0-------------------------------|--7b-----------------------------|
E|-0-------------------------------|---------------------------------|

1:24

e|---------------------------------|---------------------------------|
B|---------------------------------|---------------------------------|
G|-------16--------------14--------|-------11--------------9---------|
D|---------------------------------|---------------------------------|
A|---14--------------12------------|---9---------------7-------------|
E|---------------------------------|---------------------------------| x2

e|---------------------------------|---------------------------------|
B|---------------------------------|---------------------------------|
G|-----16------16------14------14--|-----11------11------9-----9--9-9|
D|-------16------16------14------14|-------11------11------9---9--7-7|
A|---14------14------12------12----|---9-------9-------7-------7--7-7|
E|---------------------------------|---------------------------------|

e|---------------------------------|---------------------------------|
B|---------------------------------|---------------------------------|
G|---16-----16----\14-14-----14----|\11-11-----11----\9--9------9----|
D|---16-----16----\14-14-----14----|\11-11-----11----\9--9------9----|
A|---14-----14----\12-12-----12----|\9--9------9-----\7--7------7----|
E|---------------------------------|---------------------------------|

riff at 2:08 (guitar 2)

e|---------------------------------|---------------------------------|
B|---------------------------------|---------------------------------|
G|---------------------------------|---------------------------------|
D|---------------------------------|---------------------------------|
A|----0-0-0-14---0----14---0-0-17--|----0-0-0-14---0----14---0-0-12--|
E|---------------------------------|---------------------------------|

e|---------------------------------|---------------------------------|
B|---------------------------------|---------------------------------|
G|---------------------------------|---------------------------------|
D|---------------------------------|---------------------------------|
A|----0-0-0-14---0----14---0-0-17--|----0-0-0-14---0-----12--14--12--|
E|---------------------------------|---------------------------------|

2:19 same as 0:34

2:41

e|---------------------------------|---------------------------------|
B|---------------------------------|---------------------------------|
G|--9-7-----11-7-----9-7-----11-7--|--9-------7-------11--------9--9-|
D|--7-7-9---7--7-9---7-7-9---7--7-9|--7-------7-------7---------9--9-|
A|--7-7-7---7--7-7---7-7-7---7--7-7|--7-------7-------7---------7--7-|
E|---------------------------------|---------------------------------|

e|---------------------------------|---*19---------------------------|
B|---------------------------------|---*19---------------------------|
G|---------------------------------|---*19---------------------------|
D|---------------------------------|---*19---------------------------|
A|---------------------------------|---*19---------------------------|
E|---------------------------------|---------------------------------|


e|---------------------------------|---------------------------------|
B|---------------------------------|---------------------------------|
G|--9---9--9---9---9---9---9---9---|-9-9-9-9-------------------------|
D|--9---9--9---9---9---9---9---9---|-9-9-9-9-------------------------|
A|--7---7--7---7---7---7---7---7---|-7-7-7-7-------------------------|
E|---------------------------------|---------------------------------|

riff at 3:11

e|---------------------------------|
B|---------------------------------|
G|---------------------------------|
D|--X-X--X--X--2--------5-------7--|
A|--X-X--X--X--2------5-------7----|
E|--0-0--0--0-------3-------5------| x3

e|---------------------------------|
B|---------------------------------|
G|---------------------------------|
D|--X-X--X--X--2--------5------*7--|
A|--X-X--X--X--2------5------*7----|
E|--0-0--0--0-------3------*7------|

e|---------------------------------|
B|---------------------------------|
G|---------------------------------|
D|--X-X--X--X--2--------5-------7--|
A|--X-X--X--X--2------5-------7----|
E|--0-0--0--0-------3-------5------| x4

riff at 3:35

e|---------------------------------|-------8------7--7---------------|
B|---------------------------------|------------------8----10--------|
G|-------9---7-----------9---7-----|-----9------9-------9-----8------|
D|-----9---9---9-------9---9---9---|--10-----10-----------------9----|
A|--7------------7--7------------7-|---------------------------------|
E|---------------------------------|---------------------------------|

outro riff same as intro
Добавлено: 25.11.2013
Другие материалы по этой песне:

Страница создана 20.03.2012
http://primanota.ru/lite/ef-chords.htm
Привет, Гость.
Предлагаем пройти революционный курс по гитаре.
Подарок от PrimaNota.Ru, забирай!