PrimaNota.ru - самый крупный в мире бесплатный архив песенных текстов, аккордов, табулатур и нот


Lit - You Tonight - аккорды и текст, видео

Регистрация Запомнить меня
Войти через:  Facebook Google Twitter Vk Yandex Mail.ru

Lit - You Tonight - аккорды и текст, видео

Печатать
Просмотров: 105
Уроки эстрадного вокала в Санкт-Петербурге
You Tonight
Lit
    Intro
   GTR 1

  e[-----------------------------|x 4
  B[-----------------------------|
  G[-----------------------------|
  D[333xx33---33xx-3-------------|
  A[--------0-------o-----------0|
----------------------------------------------------------------------------
                             You Tonight Acoustic - Lit
----------------------------------------------------------------------------
Tabbed by: H                                            Tuning: ½ Step Down

Intro Riff:                      Verse progression
eb|---------------------------||-------------------------|
Bb|---------------------------||-------------------------|
Gb|---------------------------||---22----22----22------2-|
Db|---------------------------||-2-22-22-22-22-22-2-44-2-|
Ab|---------------------------||-2-00-22-00-22-00-2-44-0-|
Eb|-0-55-00-55-00-55-0-2~2~2~-||-0----00----00----0-22---|

Intro Riff: 1x  

Intro chords: 2x
E AA EE AA EE AA F#F# A 

Verse:
E    AA E    E    AA  E   E    A    A   F# F# A 
Take another look  do you like what you see
E    A    A   E    E    AA  E     E    A    A   F# F# A 
I've been standing here  watching you  watching me 
E  A     A    E   E   A  A    E   E    A  A   F# F# A   
We could skip the get to know you tell me everything 
E A     A E  E    A  A    E   E
I don't even need to know the truth 
A           F#                 A                   
Cause all I wanna do is take a chance on you 

Chorus:
    E           A             B       E 
The party ain't over but it's time to go 
      E            A        B              E    
Let's slip out the back and I'll drive you home 
     E           A           B            C#m   
Well lock up the bedroom and leave on the lights 
  E           A        B                
I want you to see everything when I ... you tonight 

Intro chords: 2x
E AA EE AA EE AA F#F# A 

Verse:
E    AA E    E    A A      E E    A  A   F# F# A        
Take another step a little closer to the edge 
E    A  A  E    E      A    A  E    E  A  A F# F# A     
I'll be waiting there  just hanging on by a thread 
E   A     AE   E    A  A   E       E     A    A    F# F# A      
You don't even need to say another word  it's understood 
E    AA     EE     A A    E   E 
Turn around again, I love the view 
A         F#                  A
And all I wanna do, is put my hands on you 

Chorus:
    E           A             B       E 
The party aint over but it's  time to go 
      E            A        B              E    
Let's slip out the back and I'll drive you home 
     E           A           B            C#m   
Well lock up the bedroom and leave on the lights 
  E           A             B           
I want you to scream out my name when I ... you tonight 

Solo Chords:
E AA EE AA EE AA F#F# A
E AA EE AA EE AA F#F# A B G A B 

Pre-Chorus:
E    A    A   E    E    A  A     E
I've been standing here watching you 
          F#                 A
And all I wanna do is put my hands on you 

Chorus: 2x
    E           A             B       E 
The party ain't over but it's time to go 
      E            A        B              E    
Let's slip out the back and I'll drive you home 
     E           A           B            C#m   
Well lock up the bedroom and leave on the lights 
  E           A        B
I want you to see everything
      E           A             B
And I want you to scream out my name 
            E        A         B                      E
And I don't want you missing a thing when I ... you tonight

Outro: 2x
E AA EE AA EE AA F#F# A

  E[-----------------------------|
      GTR 2
  e[-----------------------------|x4
  B[-----------------------------|
  G[-----------------------------|
  D[33333333355555777733333355577|
  A[-----------------------------|
  E[-----------------------------|
      GTR 2 Chorus
  e[----------------------------------------|x5
  B[----------------------------------------|
  G[----------------------------------------|
  D[77777777777777xx77xx77xx77xx77-333333333|
  A[----------------------------------------|
  E[----------------------------------------|
     GTR 1
  e[----------------------------------------|
  B[----------------------------------------|
  G[----------------------------------------|
  D[xxxxxxxxxxxxxxxxxxxxxxxxxxxxxxxxxxxxxxxx|
  A[----------------------------------------|
  E[----------------------------------------|

  e[----------------------------|
  B[----------------------------|
  G[----------------------------|
  D[7777777777777777777777777777|end on picking
  A[----------------------------|
  E[----------------------------|
Добавлено: 23.08.2013
Вам также может быть интересно:
Другие материалы по этой песне:

Страница создана 23.08.2013
http://primanota.ru/lit/you-tonight-chords.htm
Привет, Гость.
Предлагаем пройти революционный курс по гитаре.
Подарок от PrimaNota.Ru, забирай!