PrimaNota.ru - самый крупный в мире бесплатный архив песенных текстов, аккордов, табулатур и нот


Lit - I my Own Worst Enemy - таба, видео

Регистрация Запомнить меня
Войти через:  Facebook Google Twitter Vk Yandex Mail.ru

Lit - I my Own Worst Enemy - таба, видео

Печатать
Просмотров: 70
Song: My Own Worst Enemy
Artist: Lit 
Tab by: Brandon Watt
Tunning: standard for both guitars
             
Guitar 1 {lead}
Guitar 2 {rythum}
 
Intro:

Guitar 1 
After each 7 release the strings a bit to mute them.
e|----------------------------------------------------|
B|----------------------------------------------------|
G|-8-8-/-9-9-9-9-9-9-9---8-8-/-9-9-9-9-9-9-9----------|
D|-8-8-/-9-9-9-9-9-9-9---8-8-/-9-9-9-9-9-9-9---9--7---|
A|-6-6-/-7-7-7-7-7-7-7---6-6-/-7-7-7-7-7-7-7---9--7---|
E|---------------------------------------------7--5---|x4

Guitar 2
Rest for 2 messures...
e|-------|  |------------------------------------|
B|-------|  |------------------------------------|
G|-9--7--|  |----------------------------4---2---|
D|-9--7--|  |-2-2---2-2-2---2-2-2---2-2--4---2---|   
A|-7--5--|  |-2-2---2-2-2---2-2-2---2-2--2---0---|  
E|-------|  |-0-0---0-0-0---0-0-0---0-0----------|x2
  
 
Verse:

Guitar 1
Comes in on 4th messure,
You either bend the 2 on the G or A
you choose...
e|----------------------------------------|
B|----------------------------------------|
G|------2b-------2b-------2b------4---2---|
D|--2-2----2-2-2----2-2-2----2-2--4---2---|   
A|--2-2----2-2-2----2-2-2----2-2--2---0---|  
E|--0-0----0-0-0----0-0-0----0-0----------|

Guitar 2 
e|-------------------------------------|
B|-------------------------------------|
G|-----------------------------4---2---|
D|--2-2---2-2-2---2-2-2---2-2--4---2---|   
A|--2-2---2-2-2---2-2-2---2-2--2---0---|  
E|--0-0---0-0-0---0-0-0---0-0----------|x4
 

Chorus:

Guitar 1
I no theres 2 guitars playing but i could
not hear 1 enough to tab it... sorry
  
Guitar 2               
e|------------------------------------|
B|------------------------------------|
G|------------------------------------|
D|--2-2---2-2-2---2-4-4---4-4-4---4---|   
A|--2-2---2-2-2---2-4-4---4-4-4---4---|  
E|--0-0---0-0-0---0-2-2---2-2-2---2---|

e|------------------------------------|
B|------------------------------------|
G|--2-2---2-2-2---2-4-4---4-4-4-------|
D|--2-2---2-2-2---2-4-4---4-4-4---4---|   
A|--0-0---0-0-0---0-2-2---2-2-2---4---|  
E|--------------------------------2---|

e|------------------------------------|
B|------------------------------------|
G|------------------------------------|
D|--2-2---2-2-2---2-4-4---4-4-4---4---|   
A|--2-2---2-2-2---2-4-4---4-4-4---4---|  
E|--0-0---0-0-0---0-2-2---2-2-2---2---|

e|--------------------------------------|
B|--------------------------------------|
G|--2-2---2-2-2---2-4-4---6-6-6-9-9-9---|
D|--2-2---2-2-2---2-4-4---6-6-6-9-9-9---|   
A|--0-0---0-0-0---0-2-2---4-4-4-7-7-7---|  
E|--------------------------------------|


Intro: 
Guitar 1
e|----------------------------------------------------|
B|----------------------------------------------------|
G|-8-8-/-9-9-9-9-9-9-9---8-8-/-9-9-9-9-9-9-9----------|
D|-8-8-/-9-9-9-9-9-9-9---8-8-/-9-9-9-9-9-9-9---9--7---|
A|-6-6-/-7-7-7-7-7-7-7---6-6-/-7-7-7-7-7-7-7---9--7---|
E|---------------------------------------------7--5---|x2

Guitar 2
e|-------------------------------------|
B|-------------------------------------|
G|-----------------------------4---2---|
D|--2-2---2-2-2---2-2-2---2-2--4---2---|   
A|--2-2---2-2-2---2-2-2---2-2--2---0---|  
E|--0-0---0-0-0---0-0-0---0-0----------|x2
 

Verse:

Guitar 1
Comes in on 4th time
e|----------------------------------------|
B|----------------------------------------|
G|------2b-------2b-------2b------4---2---|
D|--2-2----2-2-2----2-2-2----2-2--4---2---|   
A|--2-2----2-2-2----2-2-2----2-2--2---0---|  
E|--0-0----0-0-0----0-0-0----0-0----------|

Guitar 2 
e|-------------------------------------|
B|-------------------------------------|
G|-----------------------------4---2---|
D|--2-2---2-2-2---2-2-2---2-2--4---2---|   
A|--2-2---2-2-2---2-2-2---2-2--2---0---|  
E|--0-0---0-0-0---0-0-0---0-0----------|x4

Chorus:

Guitar 2               
e|------------------------------------|
B|------------------------------------|
G|------------------------------------|
D|--2-2---2-2-2---2-4-4---4-4-4---4---|   
A|--2-2---2-2-2---2-4-4---4-4-4---4---|  
E|--0-0---0-0-0---0-2-2---2-2-2---2---|

e|------------------------------------|
B|------------------------------------|
G|--2-2---2-2-2---2-4-4---4-4-4-------|
D|--2-2---2-2-2---2-4-4---4-4-4---4---|   
A|--0-0---0-0-0---0-2-2---2-2-2---4---|  
E|--------------------------------2---|

e|------------------------------------|
B|------------------------------------|
G|------------------------------------|
D|--2-2---2-2-2---2-4-4---4-4-4---4---|   
A|--2-2---2-2-2---2-4-4---4-4-4---4---|  
E|--0-0---0-0-0---0-2-2---2-2-2---2---|

e|--------------------------------------|
B|--------------------------------------|
G|--2-2---2-2-2---2-4-4---6-6-6-9-9-9---|
D|--2-2---2-2-2---2-4-4---6-6-6-9-9-9---|   
A|--0-0---0-0-0---0-2-2---4-4-4-7-7-7---|  
E|--------------------------------------|

Solo:

Guitar 1
e|-----------------------------------------------------|
B|-----------------------------------------------------|
G|-8-8-/-9-9-9-9-9-9-9---8-8-/-9-9-9-9-9-9-9---11-11---|
D|-8-8-/-9-9-9-9-9-9-9---8-8-/-9-9-9-9-9-9-9---11-11---|
A|-6-6-/-7-7-7-7-7-7-7---6-6-/-7-7-7-7-7-7-7---9--9----|
E|-----------------------------------------------------|x2

e|----------------------------------------------------------------|
B|----------------------------------------------------------------|
G|-11-/-13-13-13-13-13-13-13-13-13-13-13-13-13-13-/-14-14-14-14-/-|
D|-11-/-13-13-13-13-13-13-13-13-13-13-13-13-13-13-/-14-14-14-14-/-|
A|-9--/-11-11-11-11-11-11-11-11-11-11-11-11-11-11-/-12-12-12-12-/-|
E|----------------------------------------------------------------|

e|-----------------------------------------------------------------------|
B|-----------------------------------------------------------------------|
G|-16-16-16-16-/-18-18-18-18-/-16-16-16-16-/-14-14-14-14-/-13-13-13-13/--|
D|-16-16-16-16-/-18-18-18-18-/-16-16-16-16-/-12-12-12-12-/-13-13-13-13/--|
A|-14-14-14-14-/-16-16-16-16-/-14-14-14-14-/-12-12-12-12-/-11-11-11-11/--|
E|-----------------------------------------------------------------------|

e|-------------------------------------------|
B|-------------------------------------------|
G|-14-14-14-14-/-13-13-13-13-/-11-11-11-11---|
D|-14-14-14-14-/-13-13-13-13-/-11-11-11-11---|
A|-12-12-12-12-/-11-11-11-11-/--9--9--9--9---|
E|-------------------------------------------|

Guitar 2
e|-------------------------------------|
B|-------------------------------------|
G|-----------------------------4---2---|
D|--2-2---2-2-2---2-2-2---2-2--4---2---|   
A|--2-2---2-2-2---2-2-2---2-2--2---0---|  
E|--0-0---0-0-0---0-0-0---0-0----------|x4

e|------------------------------------|
B|------------------------------------|
G|------------------------------------|
D|--2-2---2-2-2---2-4-4---4-4-4---4---|   
A|--2-2---2-2-2---2-4-4---4-4-4---4---|  
E|--0-0---0-0-0---0-2-2---2-2-2---2---|

e|------------------------------------|
B|------------------------------------|
G|--2-2---2-2-2---2-4-4---4-4-4-------|
D|--2-2---2-2-2---2-4-4---4-4-4---4---|   
A|--0-0---0-0-0---0-2-2---2-2-2---4---|  
E|--------------------------------2---|

e|------------------------------------|
B|------------------------------------|
G|------------------------------------|
D|--2-2---2-2-2---2-4-4---4-4-4---4---|   
A|--2-2---2-2-2---2-4-4---4-4-4---4---|  
E|--0-0---0-0-0---0-2-2---2-2-2---2---|

e|--------------------------------------|
B|--------------------------------------|
G|--2-2---2-2-2---2-4-4---6-6-6-9-9-9---|
D|--2-2---2-2-2---2-4-4---6-6-6-9-9-9---|   
A|--0-0---0-0-0---0-2-2---4-4-4-7-7-7---|  
E|--------------------------------------|


Chorus:

Guitar 2               
e|------------------------------------|
B|------------------------------------|
G|------------------------------------|
D|--2-2---2-2-2---2-4-4---4-4-4---4---|   
A|--2-2---2-2-2---2-4-4---4-4-4---4---|  
E|--0-0---0-0-0---0-2-2---2-2-2---2---|

e|------------------------------------|
B|------------------------------------|
G|--2-2---2-2-2---2-4-4---4-4-4-------|
D|--2-2---2-2-2---2-4-4---4-4-4---4---|   
A|--0-0---0-0-0---0-2-2---2-2-2---4---|  
E|--------------------------------2---|

e|------------------------------------|
B|------------------------------------|
G|------------------------------------|
D|--2-2---2-2-2---2-4-4---4-4-4---4---|   
A|--2-2---2-2-2---2-4-4---4-4-4---4---|  
E|--0-0---0-0-0---0-2-2---2-2-2---2---|

e|--------------------------------------|
B|--------------------------------------|
G|--2-2---2-2-2---2-4-4---6-6-6-9-9-9---|
D|--2-2---2-2-2---2-4-4---6-6-6-9-9-9---|   
A|--0-0---0-0-0---0-2-2---4-4-4-7-7-7---|  
E|--------------------------------------|


Intro/Outro: 

Guitar 1
e|----------------------------------------------------|
B|----------------------------------------------------|
G|-8-8-/-9-9-9-9-9-9-9---8-8-/-9-9-9-9-9-9-9----------|
D|-8-8-/-9-9-9-9-9-9-9---8-8-/-9-9-9-9-9-9-9---9--7---|
A|-6-6-/-7-7-7-7-7-7-7---6-6-/-7-7-7-7-7-7-7---9--7---|
E|---------------------------------------------7--5---|x4

Guitar 2
e|-------------------------------------|
B|-------------------------------------|
G|-----------------------------4---2---|
D|--2-2---2-2-2---2-2-2---2-2--4---2---|   
A|--2-2---2-2-2---2-2-2---2-2--2---0---|  
E|--0-0---0-0-0---0-0-0---0-0----------|x4

There it is the whole song
Please rate and comment
If something was a bit off e-mail me at
b-watt13@hotmail.com
and a special thank you to 
funkeymonkey10@hotmail.com for the solo
Добавлено: 17.07.2013
Другие материалы по этой песне:

Страница создана 23.02.2012
http://primanota.ru/lit/i-my-own-worst-enemy-chords.htm
Привет, Гость.
Предлагаем пройти революционный курс по гитаре.
Подарок от PrimaNota.Ru, забирай!