PrimaNota.ru - самый крупный в мире бесплатный архив песенных текстов, аккордов, табулатур и нот


Lissy Trullie - Boy Boy - таба, видео

Регистрация Запомнить меня
Войти через:  Facebook Google Twitter Vk Yandex Mail.ru

Lissy Trullie - Boy Boy - таба, видео

Печатать
Просмотров: 93
Lissy Trullie - Boy Boy

Intro

Guitar 1
  A
E-5---------|
B-5---------|
G-6---------|
D-7---------|
A-7---------|
E-5---------| ...

Guitar 2
E-----------------------------------------------|
B-----------------------------------------------|
G-----------------------------------------------|
D---7-7--9----7-7-9-7--7-7-11-7-7--11-7-7--11-7-|
A---000000-7-9-00000000000000000000000000000000-|
E-----------------------------------------------| (strum down)

    Fm    D     E  E7
E---2-----5-----7--9--------|
B---2-----7-----9--9--------|
G---2-----7-----9--9--------|
D---4-----7-----9--9--------|
A---4-----5-----7--7--------|
E---2-----5-----7--7--------|


Fm  D   E E7 E
Ooooooo
Ooooooo

vers1
A
You got a funny face
D
And a crooked smile
E
Oh you're a prince in some world
D
But not in mine
A
When I'm never gonna
D        E
Find you handsome like the
D
other girls do

You parade around
Sulking
It makes me wonder wonder
what you're really about


A
And all the girls go
Fm  D  E E7 E
Ooooooo
Ooooooo

Vers2
And all the bedroom doors
A tradition of yours
Well the notches in your belt make your
pants tight
And all of your boys
Hanging around
I'll take the sloppy seconds or
Whatever man

Oh when you gonna start
Oh boy
I guess the drama can be
So cool

And all the girls go
Ooooooo
Ooooooo

Interlude
A
And don't you think you
bm
Might be happier

A - bm x3

Outro same as Intro

Fm
Добавлено: 02.04.2012
Другие материалы по этой песне:
  • Аккорды и текст

Страница создана 02.04.2012
http://primanota.ru/lissy-trullie/boy-boy-chords.htm
Привет, Гость.
Предлагаем пройти революционный курс по гитаре.
Подарок от PrimaNota.Ru, забирай!