PrimaNota.ru - самый крупный в мире бесплатный архив песенных текстов, аккордов, табулатур и нот


Lis Soerensen - Verden Er I Farver - аккорды и текст, видео

Регистрация Запомнить меня
Войти через:  Facebook Google Twitter Vk Yandex Mail.ru

Lis Soerensen - Verden Er I Farver - аккорды и текст, видео

Печатать
Просмотров: 98
Уроки эстрадного вокала в Санкт-Петербурге
Verden Er I Farver
Lis Soerensen
   _____________________
  / Lis Sørensen        /
 / Verden er i farver  /
/_____________________/

 Akkorder
************
 A                                       B
     F   Gm7  Am7  C/Bb  Bb7M    C/E        Dm7  G7sus4  G7  Cmaj9  C9
e:---1----1----3----0------1------0----: :---1-----3-----3----------3----:
B:---1----3----1----1------3------1----: :---1-----3-----3-----3----3----:
G:---2----3----2----0------2------0----: :---2-----5-----4-----4----3----:
D:---3----0----2----x------3------2----: :---0-----3-----3-----2----2----:
A:---3----x----0----1------1------3----: :---------5-----5-----3----3----:
E:---1----3-----------------------0----: :---------3-----3---------------:

 C                              D
    Am7  Dm9  Gm7  C11   F        Fmaj9  Gm7  C11  Am7  D11   F
 :---0----0----3----1----1----: :---0-----1----1----0----0----1----:
 :---1----5----3----3----1----: :---8-----3----3----1----1----1----:
 :---0----5----3----3----2----: :---5-----3----3----0----0----2----:
 :---2----3----3----x----3----: :---7-----0----x----2----0----3----:
 :---0----5----x----3----3----: :---8-----x----3----0---------3----:
 :-------------3---------1----: :---------3-------------------1----:



 Form
********
        (5/4)   (5/4)
A:     | F | F | Gm7 | Am7 | C/Bb Bb7M   | F | F |

        (5/4)   (5/4)
A:     | F | F | Gm7 | Am7 | C/Bb Bb7M   | F C/E |


B:     | Dm7 | G7sus4 G7 | Cmaj9 | C9 |

        (5/4)   (5/4)
A:     | F | F | Gm7 | Am7 | C/Bb Bb7M   | F | F  Gm7 |


C:      | Am7 | Dm9 | Am7 | Dm9 | Gm7 | C11 | F |


A      (guitar solo)


B:     | Dm7 | G7sus4 G7 | Cmaj9 |


D:      | Fmaj9 | Gm7 C11 | Am7 D11 | Gm7 C11 | F | F |

        (5/4)   (5/4)
A:     | F | F | Gm7 | Am7 | C/Bb Bb7M   | F |

        (5/4)   (5/4)
A5:   ||: F | F | Gm7 | Am7 | C/Bb Bb7M   | F | F  Bb7M   Gm7 :||



 Guitar solo
***************
W = Hold whammy bar'en nede, slå tonen an, og slip whammy bar'en.

 F        F(5/4)               F                 Gm7(5/4)
:--------|--------------------|-----------------|--------------------|
:--------|--------------------|-----------------|--------------------|
:2---3---|5~~~----------------|7---9---10-------|--------------------|
:W-------|W-------------------|W------------7---|10~~--7-8~~~--------|
:--------|--------------------|-----------------|W-------------------|
:--------|--------------------|-----------------|--------------------|

 Am7              C/Bb          Bb7M     F            C/E
|----------------|--------------12b13~~-|-------------15b17~~---|
|------------6~~-|6/13~~---10h11--------|13~~----13h15----------|
|\---5---7-------|----------------------|W----------------------|
|----W-----------|----------------------|-----------------------|
|----------------|----------------------|-----------------------|
|----------------|----------------------|-----------------------|



+--------------------------------------------------------------------------+
Jon Sebastian Frederiksen – 22nd /October /12
Just mail me at Maitinin@gmail.com with questions, comments and corrections!
Добавлено: 09.08.2013
Другие материалы по этой песне:
  • Аккорды и текст

Страница создана 09.08.2013
http://primanota.ru/lis-soerensen/verden-er-i-farver-chords.htm
Привет, Гость.
Предлагаем пройти революционный курс по гитаре.
Подарок от PrimaNota.Ru, забирай!