PrimaNota.ru - самый крупный в мире бесплатный архив песенных текстов, аккордов, табулатур и нот


Liran Roll - El Perdedor - таба, видео

Регистрация Запомнить меня
Войти через:  Facebook Google Twitter Vk Yandex Mail.ru

Liran Roll - El Perdedor - таба, видео

Печатать
Просмотров: 116
INTRO

1------------------------------------------------------------I
2---9s2s4----------------------------------------------------I
3---9s2s4----------------------------------------------------I
4---9s2s4-----6-6--6-6-6-2---2--2-2-2-4---4--4-4-4-4----4----I
5-------------4-4--4-4-4-0---0--0-0-0-2---2--2-2-2-2----2----I
6------------------------------------------------------------I
       C#m
SOLO ESTOY
                 A
SENTADO EN LA ESQUINA
        B         C#m
CON UN VASO DE TU AMOR
     G#m       A      B
UO UO UO,OOH,OOH,UO OOH.

     C#m           A
ME DEJAS POR Q TUDICES
         B             C#m
QUE YA TENGO A QUIEN AMABA
     G#m         A       B
BA,BA,BA,BA,OOH OOH,UO OOH.

      C#m
TU TE VAS
          A            B
Y YO ME QUEDO SOLO Y TRISTE
        C#m          G#m
EN UN RINCON,SIN TU AMOR,
        A           B
SOLO ESTOY,UO OOH,OOH


RIFF 1


e-----------------------------I----------------------------I
b-----------------------------I----------------------------I
g-----------------------------I----------------------------I
D--9--9--11--9--9--9--11--9---I----------------------------I
A--7--7---7--7--7--7---7--7---I--9--9--11--9--9--9--11--9--I
E-----------------------------I--7--7---7--7--7--7---7--7--I


e-------------------I----------------------------I---------I
b-------------------I----------------------------I---------I
g-------------------I------------4--4---4H6H4----I----4----I
D-------------------I-------6--6-----------------I---------I
A--7-7-9-7-7-7-9-7--I--7--7----------------------I---------I
E--5-5-5-5-5-5-5-5--I----------------------------I---------I

       E           B
YA LO SE QUE TU ESTAS
         Am                  E
EN LA ESTACION PARA LARGARTE YA
       E          B
YA LO SE QUE TU ESTAS
         Am                  E
EN LA ESTACION PARA LARGARTE YA

SOLO

1----------------------------------------------------------------------I
2---4h5p4-----------4h5p4---4h5p4---4h5p4---45--75---4-----------------I
3---------6----66---------6-------6-------6----------------------------I
4----------------------------------------------------------------------I
5----------------------------------------------------------------------I
6----------------------------------------------------------------------I

1-------------------------------------------------------------I
2----5-7--5-4-------------------------4-4-4-5-5-5-7-7-7-------I
3--6---------6-4-6---6-6--4-----6-6-6-------------------------I
4-------------------------------------------------------------I
5-------------------------------------------------------------I
6-------------------------------------------------------------I

1----------------7v----9--9v--9v-9v-9v-9v-9v-----------------------------I
2--9v--9v---10----------------------------------4h5p4---4h5p4---4h5p4----I
3-----------------------------------------------------6-------6-------6--I
4------------------------------------------------------------------------I
5------------------------------------------------------------------------I
6------------------------------------------------------------------------I

1------------------------------------------------------------------------I
2-4h5p4---4h5p4---4h5p4---4h5p4---45--75--4----5-7-5-4-------------------I
3-------6-------6-------6-------6------------6---------6-4-6---6--6--4-6-I
4------------------------------------------------------------------------I
5------------------------------------------------------------------------I
6------------------------------------------------------------------------I

   C#m
VIVIRE
           A
SOLO DE RECUERDOS
    B             A
Y CENIZAS DE TU AMOR
     G#m      A       B
UO UO UO OHH OOH,OHH OHH

    C#m
PARA TI
                 A
SOLO FUI EN TU VIDA
          B        C#m
UN POBRE LOCO PERDEDOR
     G#m       A       B
PERDEDOR,PARA TI SOLO FUI

    C#m
TRATARE
             A
DE VIVIR MI VIDA
     B             A
Y OLVIDAR ESTA CANCION
       G#m            A
DE MI DOLOR ESTA CANCION
        B
UO OOH,OOH

RIFF 1

       E         B
YA LO SE Q TU ESTAS
         A
EN LA ESTACION.........

s:slide
p:Pull off
H:Hammer On
V:Vibrar



                       http://liranroll.com.mx/


Добавлено: 08.04.2012
Другие материалы по этой песне:
  • Аккорды и текст

Страница создана 08.04.2012
http://primanota.ru/liran-roll/el-perdedor-chords.htm
Привет, Гость.
Предлагаем пройти революционный курс по гитаре.
Подарок от PrimaNota.Ru, забирай!