PrimaNota.ru - самый крупный в мире бесплатный архив песенных текстов, аккордов, табулатур и нот


Liran Danino - Steal Empty - аккорды и текст, видео

Регистрация Запомнить меня
Войти через:  Facebook Google Twitter Vk Yandex Mail.ru

Liran Danino - Steal Empty - аккорды и текст, видео

Печатать
Просмотров: 130
Steal Empty
Liran Danino
   F#7M             D#m              A#m                              
e|---------1--------------1h2----------------------------------------|
B|-----2-----2---2------4-----4---4------2---1-------------1h2-------|
G|---3---3-----3------3---------3----------3---3---3-----3-----3---1-|
D|-4----------------1------------------3---------3-----3---------3---|
A|-----------------------------------1---------------1---------------|
E|-------------------------------------------------------------------|
   F#7M       D#m            A#m                              
e|-------4----------2--1h2p1---------------------------------|
B|-----2----------4--------------2---1-------------1h2-------|
G|---3----------3------------------3---3---3-----3-----3---1-|
D|-4----------1----------------3---------3-----3---------3---|
A|---------------------------1---------------1---------------|
E|-----------------------------------------------------------|
Добавлено: 16.08.2015
Другие материалы по этой песне:
  • Аккорды и текст

Страница создана 16.08.2015
http://primanota.ru/liran-danino/steal-empty-chords.htm
Привет, Гость.
Предлагаем пройти революционный курс по гитаре.
Подарок от PrimaNota.Ru, забирай!